  0
SECTION
  2
HEADER
  9
$ACADVER
  1
AC1014
  9
$HANDSEED
  5
FFFF
  9
$MEASUREMENT
 70
     1
  0
ENDSEC
  0
SECTION
  2
TABLES
  0
TABLE
  2
VPORT
  5
8
330
0
100
AcDbSymbolTable
 70
     4
  0
VPORT
  5
2E
330
8
100
AcDbSymbolTableRecord
100
AcDbViewportTableRecord
  2
*ACTIVE
 70
     0
 10
0.0
 20
0.0
 11
1.0
 21
1.0
 12
210.0
 22
148.5
 13
0.0
 23
0.0
 14
10.0
 24
10.0
 15
10.0
 25
10.0
 16
0.0
 26
0.0
 36
1.0
 17
0.0
 27
0.0
 37
0.0
 40
341.0
 41
1.24
 42
50.0
 43
0.0
 44
0.0
 50
0.0
 51
0.0
 71
     0
 72
   100
 73
     1
 74
     3
 75
     0
 76
     0
 77
     0
 78
     0
  0
ENDTAB
  0
TABLE
  2
LTYPE
  5
5
330
0
100
AcDbSymbolTable
 70
     1
  0
LTYPE
  5
14
330
5
100
AcDbSymbolTableRecord
100
AcDbLinetypeTableRecord
  2
BYBLOCK
 70
     0
  3

 72
    65
 73
     0
 40
0.0
  0
LTYPE
  5
15
330
5
100
AcDbSymbolTableRecord
100
AcDbLinetypeTableRecord
  2
BYLAYER
 70
     0
  3

 72
    65
 73
     0
 40
0.0
  0
LTYPE
  5
16
330
5
100
AcDbSymbolTableRecord
100
AcDbLinetypeTableRecord
  2
CONTINUOUS
 70
     0
  3
Solid line
 72
    65
 73
     0
 40
0.0
  0
ENDTAB
  0
TABLE
  2
LAYER
  5
2
100
AcDbSymbolTable
 70
2
  0
LAYER
  5
50
100
AcDbSymbolTableRecord
100
AcDbLayerTableRecord
  2
0
 70
0
  6
CONTINUOUS
  0
LAYER
  5
51
100
AcDbSymbolTableRecord
100
AcDbLayerTableRecord
  2
SLD-DEFPOINTS
 70
0
  6
CONTINUOUS
  0
ENDTAB
  0
TABLE
  2
STYLE
  5
3
330
0
100
AcDbSymbolTable
 70
     1
  0
STYLE
  5
11
330
3
100
AcDbSymbolTableRecord
100
AcDbTextStyleTableRecord
  2
STANDARD
 70
     0
 40
0.0
 41
1.0
 50
0.0
 71
     0
 42
2.5
  3
txt
  4

  0
ENDTAB
  0
TABLE
  2
VIEW
  5
6
330
0
100
AcDbSymbolTable
 70
     0
  0
ENDTAB
  0
TABLE
  2
UCS
  5
7
330
0
100
AcDbSymbolTable
 70
     0
  0
ENDTAB
  0
TABLE
  2
APPID
  5
9
330
0
100
AcDbSymbolTable
 70
     2
  0
APPID
  5
12
330
9
100
AcDbSymbolTableRecord
100
AcDbRegAppTableRecord
  2
ACAD
 70
     0
  0
ENDTAB
  0
TABLE
  2
DIMSTYLE
  5
A
330
0
100
AcDbSymbolTable
 70
     1
  0
DIMSTYLE
105
27
330
A
100
AcDbSymbolTableRecord
100
AcDbDimStyleTableRecord
  2
ISO-25
 70
     0
  3

  4

  5

  6

  7

 40
1.0
 41
2.5
 42
0.625
 43
3.75
 44
1.25
 45
0.0
 46
0.0
 47
0.0
 48
0.0
140
2.5
141
2.5
142
0.0
143
0.03937007874016
144
1.0
145
0.0
146
1.0
147
0.625
 71
     0
 72
     0
 73
     0
 74
     0
 75
     0
 76
     0
 77
     1
 78
     8
170
     0
171
     3
172
     1
173
     0
174
     0
175
     0
176
     0
177
     0
178
     0
270
     2
271
     2
272
     2
273
     2
274
     3
340
11
275
     0
280
     0
281
     0
282
     0
283
     0
284
     8
285
     0
286
     0
287
     3
288
     0
  0
ENDTAB
  0
TABLE
  2
BLOCK_RECORD
  5
1
330
0
100
AcDbSymbolTable
 70
     1
  0
BLOCK_RECORD
  5
1F
330
1
100
AcDbSymbolTableRecord
100
AcDbBlockTableRecord
  2
*MODEL_SPACE
  0
BLOCK_RECORD
  5
1B
330
1
100
AcDbSymbolTableRecord
100
AcDbBlockTableRecord
  2
*PAPER_SPACE
  0
ENDTAB
  0
ENDSEC
  0
SECTION
  2
BLOCKS
  0
BLOCK
  5
20
330
1F
100
AcDbEntity
  8
0
100
AcDbBlockBegin
  2
*MODEL_SPACE
 70
     0
 10
0.0
 20
0.0
 30
0.0
  3
*MODEL_SPACE
  1

  0
ENDBLK
  5
21
330
1F
100
AcDbEntity
  8
0
100
AcDbBlockEnd
  0
BLOCK
  5
1C
330
1B
100
AcDbEntity
 67
     1
  8
0
100
AcDbBlockBegin
  2
*PAPER_SPACE
  1

  0
ENDBLK
  5
1D
330
1B
100
AcDbEntity
 67
     1
  8
0
100
AcDbBlockEnd
  0
ENDSEC
  0
SECTION
  2
ENTITIES
  0
LWPOLYLINE
  5
100
100
AcDbEntity
  8
0
 62
7
100
AcDbPolyline
 90
6
 70
0
 10
35.961728
 20
322.881864
 30
0.0
 10
16.713922
 20
281.146518
 30
0.0
 10
30.435130
 20
272.094325
 30
0.0
 10
40.916610
 20
264.185587
 30
0.0
 10
55.114249
 20
251.607807
 30
0.0
 10
55.304823
 20
263.089786
 30
0.0
  0
LWPOLYLINE
  5
101
100
AcDbEntity
  8
0
 62
7
100
AcDbPolyline
 90
20
 70
0
 10
15.637724
 20
244.630641
 30
0.0
 10
15.031327
 20
221.924426
 30
0.0
 10
14.694439
 20
197.331644
 30
0.0
 10
14.357551
 20
173.951644
 30
0.0
 10
14.559684
 20
152.592977
 30
0.0
 10
14.492307
 20
131.908091
 30
0.0
 10
14.761816
 20
111.694846
 30
0.0
 10
15.031327
 20
92.963905
 30
0.0
 10
15.300836
 20
74.771974
 30
0.0
 10
16.041989
 20
52.267881
 30
0.0
 10
16.985274
 20
37.175331
 30
0.0
 10
18.400202
 20
12.919423
 30
0.0
 10
20.960546
 20
33.941201
 30
0.0
 10
23.116627
 20
52.335273
 30
0.0
 10
25.407461
 20
70.257687
 30
0.0
 10
27.900428
 20
89.999291
 30
0.0
 10
30.797662
 20
113.379269
 30
0.0
 10
33.358006
 20
132.986123
 30
0.0
 10
35.581463
 20
150.841162
 30
0.0
 10
38.007054
 20
171.660815
 30
0.0
  0
LWPOLYLINE
  5
102
100
AcDbEntity
  8
0
 62
7
100
AcDbPolyline
 90
6
 70
0
 10
43.060367
 20
214.984542
 30
0.0
 10
46.227108
 20
238.701432
 30
0.0
 10
37.872299
 20
246.854098
 30
0.0
 10
29.989131
 20
254.400390
 30
0.0
 10
23.049249
 20
260.936009
 30
0.0
 10
16.244121
 20
267.067361
 30
0.0
  0
LWPOLYLINE
  5
103
100
AcDbEntity
  8
0
 62
7
100
AcDbPolyline
 90
56
 70
0
 10
90.131918
 20
340.938592
 30
0.0
 10
85.701112
 20
336.698358
 30
0.0
 10
80.222156
 20
331.743477
 30
0.0
 10
76.077209
 20
328.122601
 30
0.0
 10
71.455829
 20
323.739438
 30
0.0
 10
70.502967
 20
322.977150
 30
0.0
 10
69.835963
 20
322.119574
 30
0.0
 10
69.216604
 20
320.880854
 30
0.0
 10
68.883103
 20
319.689777
 30
0.0
 10
68.740173
 20
318.308127
 30
0.0
 10
67.882597
 20
305.539780
 30
0.0
 10
67.072665
 20
293.247863
 30
0.0
 10
65.548086
 20
275.572278
 30
0.0
 10
64.309365
 20
261.898717
 30
0.0
 10
62.308356
 20
241.316898
 30
0.0
 10
60.831421
 20
227.595691
 30
0.0
 10
59.116269
 20
212.540474
 30
0.0
 10
57.591690
 20
201.106139
 30
0.0
 10
56.352970
 20
192.435094
 30
0.0
 10
53.970816
 20
175.378857
 30
0.0
 10
55.638324
 20
165.707314
 30
0.0
 10
58.068121
 20
150.223318
 30
0.0
 10
60.259704
 20
136.692679
 30
0.0
 10
61.688997
 20
128.259845
 30
0.0
 10
63.547077
 20
113.776349
 30
0.0
 10
64.976370
 20
102.437302
 30
0.0
 10
66.358019
 20
90.050108
 30
0.0
 10
67.834953
 20
77.948766
 30
0.0
 10
68.930745
 20
67.705499
 30
0.0
 10
70.264752
 20
57.652801
 30
0.0
 10
72.218117
 20
40.882434
 30
0.0
 10
73.170979
 20
31.877894
 30
0.0
 10
73.933270
 20
23.397418
 30
0.0
 10
74.981418
 20
12.248935
 30
0.0
 10
81.175018
 20
16.775034
 30
0.0
 10
88.178552
 20
21.872838
 30
0.0
 10
93.848080
 20
26.065443
 30
0.0
 10
93.943366
 20
34.260049
 30
0.0
 10
94.038652
 20
45.027379
 30
0.0
 10
94.133937
 20
56.366448
 30
0.0
 10
94.229225
 20
73.327383
 30
0.0
 10
94.276867
 20
89.859523
 30
0.0
 10
94.276867
 20
106.391674
 30
0.0
 10
94.372153
 20
121.542177
 30
0.0
 10
94.276867
 20
138.264902
 30
0.0
 10
94.181581
 20
151.462029
 30
0.0
 10
94.133937
 20
170.948061
 30
0.0
 10
93.991010
 20
186.336773
 30
0.0
 10
93.800436
 20
205.679863
 30
0.0
 10
93.562221
 20
223.307804
 30
0.0
 10
93.276363
 20
238.982385
 30
0.0
 10
93.085790
 20
255.181030
 30
0.0
 10
92.799932
 20
264.709650
 30
0.0
 10
92.561717
 20
277.001570
 30
0.0
 10
92.371143
 20
285.910827
 30
0.0
 10
92.180572
 20
294.677156
 30
0.0
  0
LWPOLYLINE
  5
104
100
AcDbEntity
  8
0
 62
7
100
AcDbPolyline
 90
25
 70
0
 10
104.329559
 20
342.320242
 30
0.0
 10
103.662556
 20
327.550884
 30
0.0
 10
103.186125
 20
316.211831
 30
0.0
 10
102.947910
 20
308.731867
 30
0.0
 10
102.233263
 20
291.723285
 30
0.0
 10
101.947405
 20
279.193152
 30
0.0
 10
101.518617
 20
257.801412
 30
0.0
 10
101.185116
 20
241.459824
 30
0.0
 10
100.899257
 20
225.975827
 30
0.0
 10
100.756327
 20
210.110677
 30
0.0
 10
100.518112
 20
195.007818
 30
0.0
 10
100.565755
 20
186.908495
 30
0.0
 10
100.708685
 20
172.424998
 30
0.0
 10
100.899257
 20
158.656134
 30
0.0
 10
101.328044
 20
146.983589
 30
0.0
 10
101.566259
 20
140.170619
 30
0.0
 10
102.185620
 20
127.592856
 30
0.0
 10
102.662051
 20
117.778368
 30
0.0
 10
102.947910
 20
107.868612
 30
0.0
 10
103.376697
 20
97.434783
 30
0.0
 10
103.805485
 20
87.334442
 30
0.0
 10
104.043700
 20
78.806341
 30
0.0
 10
104.520131
 20
67.276703
 30
0.0
 10
104.996561
 20
58.700943
 30
0.0
 10
105.425350
 20
49.696404
 30
0.0
  0
LWPOLYLINE
  5
105
100
AcDbEntity
  8
0
 62
7
100
AcDbPolyline
 90
43
 70
0
 10
106.139997
 20
31.496741
 30
0.0
 10
106.378212
 20
22.253992
 30
0.0
 10
106.425854
 20
21.777554
 30
0.0
 10
113.238817
 20
17.394398
 30
0.0
 10
118.908343
 20
13.725874
 30
0.0
 10
125.197231
 20
9.438002
 30
0.0
 10
125.340161
 20
11.343719
 30
0.0
 10
125.768948
 20
20.634127
 30
0.0
 10
126.578880
 20
32.973679
 30
0.0
 10
127.198241
 20
41.215945
 30
0.0
 10
127.960531
 20
51.125701
 30
0.0
 10
128.675177
 20
61.940672
 30
0.0
 10
129.103965
 20
69.468290
 30
0.0
 10
129.913897
 20
78.044051
 30
0.0
 10
130.723829
 20
87.572669
 30
0.0
 10
131.533761
 20
96.338997
 30
0.0
 10
132.534267
 20
108.249749
 30
0.0
 10
133.391843
 20
117.492516
 30
0.0
 10
134.344704
 20
127.973993
 30
0.0
 10
135.106994
 20
135.787463
 30
0.0
 10
136.155141
 20
145.935446
 30
0.0
 10
137.060361
 20
155.178195
 30
0.0
 10
137.727363
 20
161.705295
 30
0.0
 10
138.537295
 20
170.328698
 30
0.0
 10
139.918945
 20
180.619605
 30
0.0
 10
141.205308
 20
190.815230
 30
0.0
 10
140.347734
 20
195.913034
 30
0.0
 10
139.394872
 20
201.868429
 30
0.0
 10
137.298576
 20
213.064554
 30
0.0
 10
135.011708
 20
225.832901
 30
0.0
 10
133.391843
 20
236.076151
 30
0.0
 10
131.629049
 20
246.652929
 30
0.0
 10
129.770967
 20
257.563185
 30
0.0
 10
127.722315
 20
270.283892
 30
0.0
 10
125.911877
 20
281.194162
 30
0.0
 10
124.387299
 20
292.390287
 30
0.0
 10
122.672149
 20
303.967558
 30
0.0
 10
120.861710
 20
315.306613
 30
0.0
 10
119.908848
 20
323.548867
 30
0.0
 10
119.765919
 20
324.930516
 30
0.0
 10
119.384774
 20
325.835734
 30
0.0
 10
118.527199
 20
326.979167
 30
0.0
 10
104.329559
 20
342.320242
 30
0.0
  0
LWPOLYLINE
  5
106
100
AcDbEntity
  8
0
 62
7
100
AcDbPolyline
 90
38
 70
1
 10
150.495712
 20
323.787082
 30
0.0
 10
148.161199
 20
321.786072
 30
0.0
 10
146.160189
 20
319.880349
 30
0.0
 10
144.254467
 20
317.641124
 30
0.0
 10
142.586959
 20
315.211327
 30
0.0
 10
141.300596
 20
312.495671
 30
0.0
 10
140.109518
 20
309.351226
 30
0.0
 10
138.966083
 20
306.016211
 30
0.0
 10
138.203794
 20
302.967054
 30
0.0
 10
137.679720
 20
300.299040
 30
0.0
 10
137.298576
 20
297.678670
 30
0.0
 10
136.965074
 20
294.391297
 30
0.0
 10
136.726858
 20
290.722779
 30
0.0
 10
136.917431
 20
287.149548
 30
0.0
 10
137.250932
 20
283.814532
 30
0.0
 10
137.727363
 20
279.193152
 30
0.0
 10
138.442010
 20
273.237767
 30
0.0
 10
139.299586
 20
267.711169
 30
0.0
 10
140.347734
 20
261.708132
 30
0.0
 10
141.252952
 20
256.800895
 30
0.0
 10
142.491673
 20
250.607306
 30
0.0
 10
144.969114
 20
253.370598
 30
0.0
 10
148.971133
 20
258.277833
 30
0.0
 10
153.020794
 20
262.756291
 30
0.0
 10
156.260525
 20
266.234230
 30
0.0
 10
159.452612
 20
269.426317
 30
0.0
 10
162.501769
 20
272.332552
 30
0.0
 10
165.932072
 20
275.715207
 30
0.0
 10
169.171801
 20
278.430863
 30
0.0
 10
173.078530
 20
281.765878
 30
0.0
 10
176.270617
 20
284.433892
 30
0.0
 10
173.983747
 20
287.673621
 30
0.0
 10
171.411024
 20
291.675641
 30
0.0
 10
168.314227
 20
296.344665
 30
0.0
 10
166.075001
 20
299.917895
 30
0.0
 10
163.121130
 20
304.158130
 30
0.0
 10
159.547897
 20
309.780015
 30
0.0
 10
156.069952
 20
315.068398
 30
0.0
  0
LWPOLYLINE
  5
107
100
AcDbEntity
  8
0
 62
7
100
AcDbPolyline
 90
41
 70
1
 10
177.699914
 20
270.903256
 30
0.0
 10
172.935604
 20
265.900736
 30
0.0
 10
167.504292
 20
260.421779
 30
0.0
 10
161.882408
 20
254.561666
 30
0.0
 10
156.165239
 20
249.082726
 30
0.0
 10
148.637630
 20
241.840978
 30
0.0
 10
150.400424
 20
227.405123
 30
0.0
 10
152.210862
 20
213.683901
 30
0.0
 10
153.783084
 20
201.630201
 30
0.0
 10
157.118101
 20
177.761012
 30
0.0
 10
158.785607
 20
166.279036
 30
0.0
 10
160.214900
 20
154.749416
 30
0.0
 10
161.930052
 20
141.981068
 30
0.0
 10
163.549917
 20
131.309006
 30
0.0
 10
166.075001
 20
114.062218
 30
0.0
 10
167.980723
 20
99.912221
 30
0.0
 10
170.172313
 20
85.238156
 30
0.0
 10
171.935104
 20
72.422167
 30
0.0
 10
173.936105
 20
57.224022
 30
0.0
 10
175.937123
 20
42.502298
 30
0.0
 10
177.318777
 20
30.782093
 30
0.0
 10
179.700940
 20
12.630089
 30
0.0
 10
179.891508
 20
13.201810
 30
0.0
 10
180.510872
 20
31.973179
 30
0.0
 10
181.225504
 20
54.841867
 30
0.0
 10
181.559016
 20
66.371487
 30
0.0
 10
181.654299
 20
77.234118
 30
0.0
 10
181.797226
 20
89.526029
 30
0.0
 10
181.844868
 20
99.626369
 30
0.0
 10
181.892510
 20
109.345551
 30
0.0
 10
181.892510
 20
121.018097
 30
0.0
 10
181.844868
 20
132.261865
 30
0.0
 10
181.606658
 20
145.268440
 30
0.0
 10
181.463731
 20
156.321639
 30
0.0
 10
181.273146
 20
166.707832
 30
0.0
 10
180.892009
 20
181.048401
 30
0.0
 10
180.606157
 20
194.912533
 30
0.0
 10
180.415572
 20
204.584078
 30
0.0
 10
179.939151
 20
217.542994
 30
0.0
 10
179.653281
 20
231.597710
 30
0.0
 10
178.890991
 20
250.607306
 30
0.0
  0
LWPOLYLINE
  5
108
100
AcDbEntity
  8
0
 62
7
100
AcDbPolyline
 90
17
 70
1
 10
150.495712
 20
176.617586
 30
0.0
 10
149.828707
 20
176.617586
 30
0.0
 10
149.066419
 20
159.561368
 30
0.0
 10
147.967134
 20
138.578459
 30
0.0
 10
146.686963
 20
115.467975
 30
0.0
 10
145.608922
 20
93.233404
 30
0.0
 10
144.126617
 20
67.427823
 30
0.0
 10
142.644312
 20
44.115215
 30
0.0
 10
139.949212
 20
10.156952
 30
0.0
 10
162.385919
 20
26.394926
 30
0.0
 10
162.049033
 20
34.547609
 30
0.0
 10
160.970992
 20
52.402648
 30
0.0
 10
159.825575
 20
70.122920
 30
0.0
 10
158.949668
 20
83.328923
 30
0.0
 10
157.332608
 20
103.205277
 30
0.0
 10
155.648170
 20
123.620658
 30
0.0
 10
153.761600
 20
143.833903
 30
0.0
  0
SPLINE
  5
109
100
AcDbEntity
  8
0
 62
7
100
AcDbSpline
 70
8
 71
3
 72
8
 73
4
 74
0
 40
0
 40
0
 40
0
 40
0
 40
1
 40
1
 40
1
 40
1
 10
55.304823
 20
263.089786
 30
0.0
 10
55.495394
 20
266.202463
 30
0.0
 10
55.733608
 20
268.934005
 30
0.0
 10
55.590680
 20
272.046699
 30
0.0
  0
SPLINE
  5
10a
100
AcDbEntity
  8
0
 62
7
100
AcDbSpline
 70
8
 71
3
 72
8
 73
4
 74
0
 40
0
 40
0
 40
0
 40
0
 40
1
 40
1
 40
1
 40
1
 10
55.590680
 20
272.046699
 30
0.0
 10
55.463631
 20
275.159369
 30
0.0
 10
55.431870
 20
278.796125
 30
0.0
 10
55.304821
 20
281.908808
 30
0.0
  0
SPLINE
  5
10b
100
AcDbEntity
  8
0
 62
7
100
AcDbSpline
 70
8
 71
3
 72
8
 73
4
 74
0
 40
0
 40
0
 40
0
 40
0
 40
1
 40
1
 40
1
 40
1
 10
55.304821
 20
281.908808
 30
0.0
 10
55.146011
 20
284.862680
 30
0.0
 10
54.987201
 20
287.816551
 30
0.0
 10
54.828390
 20
290.770422
 30
0.0
  0
SPLINE
  5
10c
100
AcDbEntity
  8
0
 62
7
100
AcDbSpline
 70
8
 71
3
 72
8
 73
4
 74
0
 40
0
 40
0
 40
0
 40
0
 40
1
 40
1
 40
1
 40
1
 10
54.828390
 20
290.770422
 30
0.0
 10
54.415456
 20
293.720303
 30
0.0
 10
53.943893
 20
297.221750
 30
0.0
 10
52.922668
 20
300.013182
 30
0.0
  0
SPLINE
  5
10d
100
AcDbEntity
  8
0
 62
7
100
AcDbSpline
 70
8
 71
3
 72
8
 73
4
 74
0
 40
0
 40
0
 40
0
 40
0
 40
1
 40
1
 40
1
 40
1
 10
52.922668
 20
300.013182
 30
0.0
 10
51.604543
 20
304.015201
 30
0.0
 10
49.905272
 20
308.112507
 30
0.0
 10
47.681928
 20
312.019240
 30
0.0
  0
SPLINE
  5
10e
100
AcDbEntity
  8
0
 62
7
100
AcDbSpline
 70
8
 71
3
 72
8
 73
4
 74
0
 40
0
 40
0
 40
0
 40
0
 40
1
 40
1
 40
1
 40
1
 10
47.681928
 20
312.019240
 30
0.0
 10
46.173229
 20
314.544323
 30
0.0
 10
44.140457
 20
316.926478
 30
0.0
 10
41.869470
 20
319.165703
 30
0.0
  0
SPLINE
  5
10f
100
AcDbEntity
  8
0
 62
7
100
AcDbSpline
 70
8
 71
3
 72
8
 73
4
 74
0
 40
0
 40
0
 40
0
 40
0
 40
1
 40
1
 40
1
 40
1
 10
41.869470
 20
319.165703
 30
0.0
 10
40.186082
 20
320.452066
 30
0.0
 10
38.502692
 20
321.738429
 30
0.0
 10
35.961728
 20
322.881864
 30
0.0
  0
SPLINE
  5
110
100
AcDbEntity
  8
0
 62
7
100
AcDbSpline
 70
8
 71
3
 72
8
 73
4
 74
0
 40
0
 40
0
 40
0
 40
0
 40
1
 40
1
 40
1
 40
1
 10
16.244121
 20
267.067361
 30
0.0
 10
16.244121
 20
266.663089
 30
0.0
 10
16.041989
 20
259.184182
 30
0.0
 10
15.637724
 20
244.630641
 30
0.0
  0
SPLINE
  5
111
100
AcDbEntity
  8
0
 62
7
100
AcDbSpline
 70
8
 71
3
 72
8
 73
4
 74
0
 40
0
 40
0
 40
0
 40
0
 40
1
 40
1
 40
1
 40
1
 10
38.007054
 20
171.660815
 30
0.0
 10
40.028378
 20
187.427147
 30
0.0
 10
40.971663
 20
195.422610
 30
0.0
 10
40.836909
 20
195.647204
 30
0.0
  0
SPLINE
  5
112
100
AcDbEntity
  8
0
 62
7
100
AcDbSpline
 70
8
 71
3
 72
8
 73
4
 74
0
 40
0
 40
0
 40
0
 40
0
 40
1
 40
1
 40
1
 40
1
 10
40.836909
 20
195.647204
 30
0.0
 10
40.702154
 20
195.871798
 30
0.0
 10
41.443306
 20
202.317578
 30
0.0
 10
43.060367
 20
214.984542
 30
0.0
  0
SPLINE
  5
113
100
AcDbEntity
  8
0
 62
7
100
AcDbSpline
 70
8
 71
3
 72
8
 73
4
 74
0
 40
0
 40
0
 40
0
 40
0
 40
1
 40
1
 40
1
 40
1
 10
92.180572
 20
294.677156
 30
0.0
 10
91.862951
 20
304.523395
 30
0.0
 10
91.704141
 20
309.510038
 30
0.0
 10
91.704141
 20
309.637085
 30
0.0
  0
SPLINE
  5
114
100
AcDbEntity
  8
0
 62
7
100
AcDbSpline
 70
8
 71
3
 72
8
 73
4
 74
0
 40
0
 40
0
 40
0
 40
0
 40
1
 40
1
 40
1
 40
1
 10
91.704141
 20
309.637085
 30
0.0
 10
91.704141
 20
309.764133
 30
0.0
 10
91.180066
 20
320.197969
 30
0.0
 10
90.131918
 20
340.938592
 30
0.0
  0
SPLINE
  5
115
100
AcDbEntity
  8
0
 62
7
100
AcDbSpline
 70
8
 71
3
 72
8
 73
4
 74
0
 40
0
 40
0
 40
0
 40
0
 40
1
 40
1
 40
1
 40
1
 10
105.425350
 20
49.696404
 30
0.0
 10
105.647684
 20
43.026378
 30
0.0
 10
105.758852
 20
39.627836
 30
0.0
 10
105.758852
 20
39.500780
 30
0.0
  0
SPLINE
  5
116
100
AcDbEntity
  8
0
 62
7
100
AcDbSpline
 70
8
 71
3
 72
8
 73
4
 74
0
 40
0
 40
0
 40
0
 40
0
 40
1
 40
1
 40
1
 40
1
 10
105.758852
 20
39.500780
 30
0.0
 10
105.758852
 20
39.373734
 30
0.0
 10
105.885900
 20
36.705721
 30
0.0
 10
106.139997
 20
31.496741
 30
0.0
  0
LWPOLYLINE
  5
117
100
AcDbEntity
  8
0
 62
7
100
AcDbPolyline
 90
16
 70
1
 10
45.966777
 20
181.000741
 30
0.0
 10
45.347417
 20
181.000741
 30
0.0
 10
43.679909
 20
163.229876
 30
0.0
 10
40.868966
 20
125.020116
 30
0.0
 10
40.201964
 20
114.205145
 30
0.0
 10
38.343942
 20
87.573694
 30
0.0
 10
37.131146
 20
64.261085
 30
0.0
 10
35.581463
 20
28.348882
 30
0.0
 10
59.028833
 20
11.774016
 30
0.0
 10
57.950794
 20
21.408997
 30
0.0
 10
55.592582
 20
45.462764
 30
0.0
 10
54.245032
 20
62.576645
 30
0.0
 10
52.695349
 20
82.183499
 30
0.0
 10
50.876157
 20
104.013804
 30
0.0
 10
49.393852
 20
125.709365
 30
0.0
 10
47.911546
 20
147.472299
 30
0.0
  0
ENDSEC
  0
SECTION
  2
OBJECTS
  0
DICTIONARY
  5
C
330
0
100
AcDbDictionary
  3
ACAD_GROUP
350
D
  3
ACAD_MLINESTYLE
350
17
  0
DICTIONARY
  5
D
330
C
100
AcDbDictionary
  0
DICTIONARY
  5
1A
330
C
100
AcDbDictionary
  0
DICTIONARY
  5
17
330
C
100
AcDbDictionary
  3
STANDARD
350
18
  0
DICTIONARY
  5
19
330
C
100
AcDbDictionary
  0
ENDSEC
  0
EOF
