  0
SECTION
  2
HEADER
  9
$ACADVER
  1
AC1014
  9
$HANDSEED
  5
FFFF
  9
$MEASUREMENT
 70
     1
  0
ENDSEC
  0
SECTION
  2
TABLES
  0
TABLE
  2
VPORT
  5
8
330
0
100
AcDbSymbolTable
 70
     4
  0
VPORT
  5
2E
330
8
100
AcDbSymbolTableRecord
100
AcDbViewportTableRecord
  2
*ACTIVE
 70
     0
 10
0.0
 20
0.0
 11
1.0
 21
1.0
 12
210.0
 22
148.5
 13
0.0
 23
0.0
 14
10.0
 24
10.0
 15
10.0
 25
10.0
 16
0.0
 26
0.0
 36
1.0
 17
0.0
 27
0.0
 37
0.0
 40
341.0
 41
1.24
 42
50.0
 43
0.0
 44
0.0
 50
0.0
 51
0.0
 71
     0
 72
   100
 73
     1
 74
     3
 75
     0
 76
     0
 77
     0
 78
     0
  0
ENDTAB
  0
TABLE
  2
LTYPE
  5
5
330
0
100
AcDbSymbolTable
 70
     1
  0
LTYPE
  5
14
330
5
100
AcDbSymbolTableRecord
100
AcDbLinetypeTableRecord
  2
BYBLOCK
 70
     0
  3

 72
    65
 73
     0
 40
0.0
  0
LTYPE
  5
15
330
5
100
AcDbSymbolTableRecord
100
AcDbLinetypeTableRecord
  2
BYLAYER
 70
     0
  3

 72
    65
 73
     0
 40
0.0
  0
LTYPE
  5
16
330
5
100
AcDbSymbolTableRecord
100
AcDbLinetypeTableRecord
  2
CONTINUOUS
 70
     0
  3
Solid line
 72
    65
 73
     0
 40
0.0
  0
ENDTAB
  0
TABLE
  2
LAYER
  5
2
100
AcDbSymbolTable
 70
2
  0
LAYER
  5
50
100
AcDbSymbolTableRecord
100
AcDbLayerTableRecord
  2
0
 70
0
  6
CONTINUOUS
  0
LAYER
  5
51
100
AcDbSymbolTableRecord
100
AcDbLayerTableRecord
  2
SLD-DEFPOINTS
 70
0
  6
CONTINUOUS
  0
ENDTAB
  0
TABLE
  2
STYLE
  5
3
330
0
100
AcDbSymbolTable
 70
     1
  0
STYLE
  5
11
330
3
100
AcDbSymbolTableRecord
100
AcDbTextStyleTableRecord
  2
STANDARD
 70
     0
 40
0.0
 41
1.0
 50
0.0
 71
     0
 42
2.5
  3
txt
  4

  0
ENDTAB
  0
TABLE
  2
VIEW
  5
6
330
0
100
AcDbSymbolTable
 70
     0
  0
ENDTAB
  0
TABLE
  2
UCS
  5
7
330
0
100
AcDbSymbolTable
 70
     0
  0
ENDTAB
  0
TABLE
  2
APPID
  5
9
330
0
100
AcDbSymbolTable
 70
     2
  0
APPID
  5
12
330
9
100
AcDbSymbolTableRecord
100
AcDbRegAppTableRecord
  2
ACAD
 70
     0
  0
ENDTAB
  0
TABLE
  2
DIMSTYLE
  5
A
330
0
100
AcDbSymbolTable
 70
     1
  0
DIMSTYLE
105
27
330
A
100
AcDbSymbolTableRecord
100
AcDbDimStyleTableRecord
  2
ISO-25
 70
     0
  3

  4

  5

  6

  7

 40
1.0
 41
2.5
 42
0.625
 43
3.75
 44
1.25
 45
0.0
 46
0.0
 47
0.0
 48
0.0
140
2.5
141
2.5
142
0.0
143
0.03937007874016
144
1.0
145
0.0
146
1.0
147
0.625
 71
     0
 72
     0
 73
     0
 74
     0
 75
     0
 76
     0
 77
     1
 78
     8
170
     0
171
     3
172
     1
173
     0
174
     0
175
     0
176
     0
177
     0
178
     0
270
     2
271
     2
272
     2
273
     2
274
     3
340
11
275
     0
280
     0
281
     0
282
     0
283
     0
284
     8
285
     0
286
     0
287
     3
288
     0
  0
ENDTAB
  0
TABLE
  2
BLOCK_RECORD
  5
1
330
0
100
AcDbSymbolTable
 70
     1
  0
BLOCK_RECORD
  5
1F
330
1
100
AcDbSymbolTableRecord
100
AcDbBlockTableRecord
  2
*MODEL_SPACE
  0
BLOCK_RECORD
  5
1B
330
1
100
AcDbSymbolTableRecord
100
AcDbBlockTableRecord
  2
*PAPER_SPACE
  0
ENDTAB
  0
ENDSEC
  0
SECTION
  2
BLOCKS
  0
BLOCK
  5
20
330
1F
100
AcDbEntity
  8
0
100
AcDbBlockBegin
  2
*MODEL_SPACE
 70
     0
 10
0.0
 20
0.0
 30
0.0
  3
*MODEL_SPACE
  1

  0
ENDBLK
  5
21
330
1F
100
AcDbEntity
  8
0
100
AcDbBlockEnd
  0
BLOCK
  5
1C
330
1B
100
AcDbEntity
 67
     1
  8
0
100
AcDbBlockBegin
  2
*PAPER_SPACE
  1

  0
ENDBLK
  5
1D
330
1B
100
AcDbEntity
 67
     1
  8
0
100
AcDbBlockEnd
  0
ENDSEC
  0
SECTION
  2
ENTITIES
  0
SPLINE
  5
100
100
AcDbEntity
  8
0
 62
7
100
AcDbSpline
 70
8
 71
3
 72
8
 73
4
 74
0
 40
0
 40
0
 40
0
 40
0
 40
1
 40
1
 40
1
 40
1
 10
18.917841
 20
315.302907
 30
0.0
 10
12.827596
 20
266.301678
 30
0.0
 10
6.737353
 20
217.300450
 30
0.0
 10
0.647109
 20
168.299220
 30
0.0
  0
SPLINE
  5
101
100
AcDbEntity
  8
0
 62
7
100
AcDbSpline
 70
8
 71
3
 72
8
 73
4
 74
0
 40
0
 40
0
 40
0
 40
0
 40
1
 40
1
 40
1
 40
1
 10
3.760656
 20
327.881493
 30
0.0
 10
8.813051
 20
323.688631
 30
0.0
 10
13.865445
 20
319.495769
 30
0.0
 10
18.917841
 20
315.302907
 30
0.0
  0
SPLINE
  5
102
100
AcDbEntity
  8
0
 62
7
100
AcDbSpline
 70
8
 71
3
 72
8
 73
4
 74
0
 40
0
 40
0
 40
0
 40
0
 40
1
 40
1
 40
1
 40
1
 10
33.596347
 20
287.850137
 30
0.0
 10
33.761291
 20
276.133040
 30
0.0
 10
33.926233
 20
264.415945
 30
0.0
 10
34.091176
 20
252.698848
 30
0.0
  0
SPLINE
  5
103
100
AcDbEntity
  8
0
 62
7
100
AcDbSpline
 70
8
 71
3
 72
8
 73
4
 74
0
 40
0
 40
0
 40
0
 40
0
 40
1
 40
1
 40
1
 40
1
 10
35.478741
 20
154.129700
 30
0.0
 10
38.455428
 20
154.129700
 30
0.0
 10
41.432115
 20
154.129700
 30
0.0
 10
44.408802
 20
154.129700
 30
0.0
  0
SPLINE
  5
104
100
AcDbEntity
  8
0
 62
7
100
AcDbSpline
 70
8
 71
3
 72
8
 73
4
 74
0
 40
0
 40
0
 40
0
 40
0
 40
1
 40
1
 40
1
 40
1
 10
26.162826
 20
120.151768
 30
0.0
 10
27.224284
 20
125.266614
 30
0.0
 10
28.285745
 20
130.381457
 30
0.0
 10
29.347203
 20
135.496303
 30
0.0
  0
SPLINE
  5
105
100
AcDbEntity
  8
0
 62
7
100
AcDbSpline
 70
8
 71
3
 72
8
 73
4
 74
0
 40
0
 40
0
 40
0
 40
0
 40
1
 40
1
 40
1
 40
1
 10
18.637756
 20
212.925996
 30
0.0
 10
21.112274
 20
201.437925
 30
0.0
 10
23.586795
 20
189.949852
 30
0.0
 10
26.061313
 20
178.461781
 30
0.0
  0
SPLINE
  5
106
100
AcDbEntity
  8
0
 62
7
100
AcDbSpline
 70
8
 71
3
 72
8
 73
4
 74
0
 40
0
 40
0
 40
0
 40
0
 40
1
 40
1
 40
1
 40
1
 10
44.408802
 20
93.282696
 30
0.0
 10
39.568713
 20
100.410224
 30
0.0
 10
34.728621
 20
107.537755
 30
0.0
 10
29.888532
 20
114.665284
 30
0.0
  0
SPLINE
  5
107
100
AcDbEntity
  8
0
 62
7
100
AcDbSpline
 70
8
 71
3
 72
8
 73
4
 74
0
 40
0
 40
0
 40
0
 40
0
 40
1
 40
1
 40
1
 40
1
 10
4.585453
 20
151.926663
 30
0.0
 10
6.339137
 20
159.539194
 30
0.0
 10
8.092822
 20
167.151725
 30
0.0
 10
9.846506
 20
174.764255
 30
0.0
  0
SPLINE
  5
108
100
AcDbEntity
  8
0
 62
7
100
AcDbSpline
 70
8
 71
3
 72
8
 73
4
 74
0
 40
0
 40
0
 40
0
 40
0
 40
1
 40
1
 40
1
 40
1
 10
11.336914
 20
181.233932
 30
0.0
 10
14.939410
 20
172.083135
 30
0.0
 10
18.541908
 20
162.932338
 30
0.0
 10
22.144403
 20
153.781540
 30
0.0
  0
SPLINE
  5
109
100
AcDbEntity
  8
0
 62
7
100
AcDbSpline
 70
8
 71
3
 72
8
 73
4
 74
0
 40
0
 40
0
 40
0
 40
0
 40
1
 40
1
 40
1
 40
1
 10
22.144403
 20
153.781540
 30
0.0
 10
23.450040
 20
162.008288
 30
0.0
 10
24.755676
 20
170.235033
 30
0.0
 10
26.061313
 20
178.461781
 30
0.0
  0
SPLINE
  5
10a
100
AcDbEntity
  8
0
 62
7
100
AcDbSpline
 70
8
 71
3
 72
8
 73
4
 74
0
 40
0
 40
0
 40
0
 40
0
 40
1
 40
1
 40
1
 40
1
 10
29.393679
 20
162.991112
 30
0.0
 10
28.146097
 20
154.317827
 30
0.0
 10
26.898513
 20
145.644545
 30
0.0
 10
25.650931
 20
136.971259
 30
0.0
  0
SPLINE
  5
10b
100
AcDbEntity
  8
0
 62
7
100
AcDbSpline
 70
8
 71
3
 72
8
 73
4
 74
0
 40
0
 40
0
 40
0
 40
0
 40
1
 40
1
 40
1
 40
1
 10
25.650931
 20
136.971259
 30
0.0
 10
20.382789
 20
149.568924
 30
0.0
 10
15.114649
 20
162.166591
 30
0.0
 10
9.846506
 20
174.764255
 30
0.0
  0
SPLINE
  5
10c
100
AcDbEntity
  8
0
 62
7
100
AcDbSpline
 70
8
 71
3
 72
8
 73
4
 74
0
 40
0
 40
0
 40
0
 40
0
 40
1
 40
1
 40
1
 40
1
 10
29.347203
 20
135.496303
 30
0.0
 10
33.065900
 20
127.468940
 30
0.0
 10
36.784595
 20
119.441574
 30
0.0
 10
40.503293
 20
111.414211
 30
0.0
  0
SPLINE
  5
10d
100
AcDbEntity
  8
0
 62
7
100
AcDbSpline
 70
8
 71
3
 72
8
 73
4
 74
0
 40
0
 40
0
 40
0
 40
0
 40
1
 40
1
 40
1
 40
1
 10
29.888532
 20
114.665284
 30
0.0
 10
30.367441
 20
117.765846
 30
0.0
 10
30.846353
 20
120.866405
 30
0.0
 10
31.325262
 20
123.966967
 30
0.0
  0
SPLINE
  5
10e
100
AcDbEntity
  8
0
 62
7
100
AcDbSpline
 70
8
 71
3
 72
8
 73
4
 74
0
 40
0
 40
0
 40
0
 40
0
 40
1
 40
1
 40
1
 40
1
 10
31.325262
 20
123.966967
 30
0.0
 10
34.718689
 20
118.231722
 30
0.0
 10
38.112113
 20
112.496478
 30
0.0
 10
41.505540
 20
106.761232
 30
0.0
  0
SPLINE
  5
10f
100
AcDbEntity
  8
0
 62
7
100
AcDbSpline
 70
8
 71
3
 72
8
 73
4
 74
0
 40
0
 40
0
 40
0
 40
0
 40
1
 40
1
 40
1
 40
1
 10
41.505540
 20
106.761232
 30
0.0
 10
42.473293
 20
102.268388
 30
0.0
 10
43.441049
 20
97.775541
 30
0.0
 10
44.408802
 20
93.282696
 30
0.0
  0
SPLINE
  5
110
100
AcDbEntity
  8
0
 62
7
100
AcDbSpline
 70
8
 71
3
 72
8
 73
4
 74
0
 40
0
 40
0
 40
0
 40
0
 40
1
 40
1
 40
1
 40
1
 10
26.162826
 20
120.151768
 30
0.0
 10
18.970369
 20
130.743399
 30
0.0
 10
11.777911
 20
141.335032
 30
0.0
 10
4.585453
 20
151.926663
 30
0.0
  0
SPLINE
  5
111
100
AcDbEntity
  8
0
 62
7
100
AcDbSpline
 70
8
 71
3
 72
8
 73
4
 74
0
 40
0
 40
0
 40
0
 40
0
 40
1
 40
1
 40
1
 40
1
 10
11.336914
 20
181.233932
 30
0.0
 10
13.770528
 20
191.797953
 30
0.0
 10
16.204142
 20
202.361975
 30
0.0
 10
18.637756
 20
212.925996
 30
0.0
  0
SPLINE
  5
112
100
AcDbEntity
  8
0
 62
7
100
AcDbSpline
 70
8
 71
3
 72
8
 73
4
 74
0
 40
0
 40
0
 40
0
 40
0
 40
1
 40
1
 40
1
 40
1
 10
29.393679
 20
162.991112
 30
0.0
 10
33.096883
 20
145.798813
 30
0.0
 10
36.800089
 20
128.606510
 30
0.0
 10
40.503293
 20
111.414211
 30
0.0
  0
SPLINE
  5
113
100
AcDbEntity
  8
0
 62
7
100
AcDbSpline
 70
8
 71
3
 72
8
 73
4
 74
0
 40
0
 40
0
 40
0
 40
0
 40
1
 40
1
 40
1
 40
1
 10
1.891885
 20
147.055692
 30
0.0
 10
6.192426
 20
138.575431
 30
0.0
 10
10.492967
 20
130.095167
 30
0.0
 10
14.793508
 20
121.614906
 30
0.0
  0
SPLINE
  5
114
100
AcDbEntity
  8
0
 62
7
100
AcDbSpline
 70
8
 71
3
 72
8
 73
4
 74
0
 40
0
 40
0
 40
0
 40
0
 40
1
 40
1
 40
1
 40
1
 10
32.138668
 20
68.216555
 30
0.0
 10
28.322532
 20
60.078493
 30
0.0
 10
24.506394
 20
51.940434
 30
0.0
 10
20.690258
 20
43.802371
 30
0.0
  0
SPLINE
  5
115
100
AcDbEntity
  8
0
 62
7
100
AcDbSpline
 70
8
 71
3
 72
8
 73
4
 74
0
 40
0
 40
0
 40
0
 40
0
 40
1
 40
1
 40
1
 40
1
 10
1.028226
 20
1.872303
 30
0.0
 10
1.028226
 20
16.240077
 30
0.0
 10
1.028226
 20
30.607873
 30
0.0
 10
1.028226
 20
44.975658
 30
0.0
  0
SPLINE
  5
116
100
AcDbEntity
  8
0
 62
7
100
AcDbSpline
 70
8
 71
3
 72
8
 73
4
 74
0
 40
0
 40
0
 40
0
 40
0
 40
1
 40
1
 40
1
 40
1
 10
1.028226
 20
138.018263
 30
0.0
 10
3.646141
 20
123.974458
 30
0.0
 10
6.264056
 20
109.930655
 30
0.0
 10
8.881970
 20
95.886849
 30
0.0
  0
SPLINE
  5
117
100
AcDbEntity
  8
0
 62
7
100
AcDbSpline
 70
8
 71
3
 72
8
 73
4
 74
0
 40
0
 40
0
 40
0
 40
0
 40
1
 40
1
 40
1
 40
1
 10
8.881970
 20
95.886849
 30
0.0
 10
11.728584
 20
102.735279
 30
0.0
 10
14.575198
 20
109.583712
 30
0.0
 10
17.421810
 20
116.432142
 30
0.0
  0
SPLINE
  5
118
100
AcDbEntity
  8
0
 62
7
100
AcDbSpline
 70
8
 71
3
 72
8
 73
4
 74
0
 40
0
 40
0
 40
0
 40
0
 40
1
 40
1
 40
1
 40
1
 10
1.891885
 20
147.055692
 30
0.0
 10
4.339965
 20
134.362431
 30
0.0
 10
6.788044
 20
121.669167
 30
0.0
 10
9.236123
 20
108.975906
 30
0.0
  0
SPLINE
  5
119
100
AcDbEntity
  8
0
 62
7
100
AcDbSpline
 70
8
 71
3
 72
8
 73
4
 74
0
 40
0
 40
0
 40
0
 40
0
 40
1
 40
1
 40
1
 40
1
 10
9.236123
 20
108.975906
 30
0.0
 10
11.088585
 20
113.188906
 30
0.0
 10
12.941046
 20
117.401906
 30
0.0
 10
14.793508
 20
121.614906
 30
0.0
  0
SPLINE
  5
11a
100
AcDbEntity
  8
0
 62
7
100
AcDbSpline
 70
8
 71
3
 72
8
 73
4
 74
0
 40
0
 40
0
 40
0
 40
0
 40
1
 40
1
 40
1
 40
1
 10
17.421810
 20
116.432142
 30
0.0
 10
23.886335
 20
103.684708
 30
0.0
 10
30.350860
 20
90.937273
 30
0.0
 10
36.815385
 20
78.189839
 30
0.0
  0
SPLINE
  5
11b
100
AcDbEntity
  8
0
 62
7
100
AcDbSpline
 70
8
 71
3
 72
8
 73
4
 74
0
 40
0
 40
0
 40
0
 40
0
 40
1
 40
1
 40
1
 40
1
 10
1.028226
 20
59.306740
 30
0.0
 10
4.820064
 20
68.901733
 30
0.0
 10
8.611903
 20
78.496726
 30
0.0
 10
12.403741
 20
88.091719
 30
0.0
  0
SPLINE
  5
11c
100
AcDbEntity
  8
0
 62
7
100
AcDbSpline
 70
8
 71
3
 72
8
 73
4
 74
0
 40
0
 40
0
 40
0
 40
0
 40
1
 40
1
 40
1
 40
1
 10
12.403741
 20
88.091719
 30
0.0
 10
15.165914
 20
73.328604
 30
0.0
 10
17.928085
 20
58.565486
 30
0.0
 10
20.690258
 20
43.802371
 30
0.0
  0
SPLINE
  5
11d
100
AcDbEntity
  8
0
 62
7
100
AcDbSpline
 70
8
 71
3
 72
8
 73
4
 74
0
 40
0
 40
0
 40
0
 40
0
 40
1
 40
1
 40
1
 40
1
 10
1.028226
 20
44.975658
 30
0.0
 10
4.925783
 20
54.388472
 30
0.0
 10
8.823340
 20
63.801289
 30
0.0
 10
12.720897
 20
73.214103
 30
0.0
  0
SPLINE
  5
11e
100
AcDbEntity
  8
0
 62
7
100
AcDbSpline
 70
8
 71
3
 72
8
 73
4
 74
0
 40
0
 40
0
 40
0
 40
0
 40
1
 40
1
 40
1
 40
1
 10
12.720897
 20
73.214103
 30
0.0
 10
14.601627
 20
61.755930
 30
0.0
 10
16.482357
 20
50.297757
 30
0.0
 10
18.363086
 20
38.839585
 30
0.0
  0
SPLINE
  5
11f
100
AcDbEntity
  8
0
 62
7
100
AcDbSpline
 70
8
 71
3
 72
8
 73
4
 74
0
 40
0
 40
0
 40
0
 40
0
 40
1
 40
1
 40
1
 40
1
 10
18.363086
 20
38.839585
 30
0.0
 10
12.584801
 20
26.517156
 30
0.0
 10
6.806513
 20
14.194742
 30
0.0
 10
1.028226
 20
1.872303
 30
0.0
  0
SPLINE
  5
120
100
AcDbEntity
  8
0
 62
7
100
AcDbSpline
 70
8
 71
3
 72
8
 73
4
 74
0
 40
0
 40
0
 40
0
 40
0
 40
1
 40
1
 40
1
 40
1
 10
1.028226
 20
59.306740
 30
0.0
 10
1.028226
 20
85.543914
 30
0.0
 10
1.028226
 20
111.781090
 30
0.0
 10
1.028226
 20
138.018263
 30
0.0
  0
SPLINE
  5
121
100
AcDbEntity
  8
0
 62
7
100
AcDbSpline
 70
8
 71
3
 72
8
 73
4
 74
0
 40
0
 40
0
 40
0
 40
0
 40
1
 40
1
 40
1
 40
1
 10
3.760656
 20
327.881493
 30
0.0
 10
8.813051
 20
323.688631
 30
0.0
 10
13.865445
 20
319.495769
 30
0.0
 10
18.917841
 20
315.302907
 30
0.0
  0
SPLINE
  5
122
100
AcDbEntity
  8
0
 62
7
100
AcDbSpline
 70
8
 71
3
 72
8
 73
4
 74
0
 40
0
 40
0
 40
0
 40
0
 40
1
 40
1
 40
1
 40
1
 10
0.647109
 20
168.299220
 30
0.0
 10
1.684958
 20
221.493310
 30
0.0
 10
2.722807
 20
274.687402
 30
0.0
 10
3.760656
 20
327.881493
 30
0.0
  0
SPLINE
  5
123
100
AcDbEntity
  8
0
 62
7
100
AcDbSpline
 70
8
 71
3
 72
8
 73
4
 74
0
 40
0
 40
0
 40
0
 40
0
 40
1
 40
1
 40
1
 40
1
 10
44.408802
 20
154.129700
 30
0.0
 10
43.540273
 20
210.240814
 30
0.0
 10
42.671746
 20
266.351925
 30
0.0
 10
41.803217
 20
322.463038
 30
0.0
  0
SPLINE
  5
124
100
AcDbEntity
  8
0
 62
7
100
AcDbSpline
 70
8
 71
3
 72
8
 73
4
 74
0
 40
0
 40
0
 40
0
 40
0
 40
1
 40
1
 40
1
 40
1
 10
35.332250
 20
164.536014
 30
0.0
 10
35.381081
 20
161.067242
 30
0.0
 10
35.429910
 20
157.598472
 30
0.0
 10
35.478741
 20
154.129700
 30
0.0
  0
SPLINE
  5
125
100
AcDbEntity
  8
0
 62
7
100
AcDbSpline
 70
8
 71
3
 72
8
 73
4
 74
0
 40
0
 40
0
 40
0
 40
0
 40
1
 40
1
 40
1
 40
1
 10
34.456659
 20
226.735748
 30
0.0
 10
34.657065
 20
212.499498
 30
0.0
 10
34.857468
 20
198.263248
 30
0.0
 10
35.057874
 20
184.026998
 30
0.0
  0
SPLINE
  5
126
100
AcDbEntity
  8
0
 62
7
100
AcDbSpline
 70
8
 71
3
 72
8
 73
4
 74
0
 40
0
 40
0
 40
0
 40
0
 40
1
 40
1
 40
1
 40
1
 10
55.276758
 20
52.697605
 30
0.0
 10
62.143355
 20
47.205821
 30
0.0
 10
69.009951
 20
41.714036
 30
0.0
 10
75.876547
 20
36.222252
 30
0.0
  0
SPLINE
  5
127
100
AcDbEntity
  8
0
 62
7
100
AcDbSpline
 70
8
 71
3
 72
8
 73
4
 74
0
 40
0
 40
0
 40
0
 40
0
 40
1
 40
1
 40
1
 40
1
 10
47.846666
 20
326.583527
 30
0.0
 10
58.233032
 20
318.596623
 30
0.0
 10
68.619399
 20
310.609718
 30
0.0
 10
79.005766
 20
302.622814
 30
0.0
  0
SPLINE
  5
128
100
AcDbEntity
  8
0
 62
7
100
AcDbSpline
 70
8
 71
3
 72
8
 73
4
 74
0
 40
0
 40
0
 40
0
 40
0
 40
1
 40
1
 40
1
 40
1
 10
55.098956
 20
55.654893
 30
0.0
 10
55.158222
 20
54.669129
 30
0.0
 10
55.217492
 20
53.683368
 30
0.0
 10
55.276758
 20
52.697605
 30
0.0
  0
SPLINE
  5
129
100
AcDbEntity
  8
0
 62
7
100
AcDbSpline
 70
8
 71
3
 72
8
 73
4
 74
0
 40
0
 40
0
 40
0
 40
0
 40
1
 40
1
 40
1
 40
1
 10
135.438949
 20
154.129700
 30
0.0
 10
133.995237
 20
154.129700
 30
0.0
 10
132.551525
 20
154.129700
 30
0.0
 10
131.107813
 20
154.129700
 30
0.0
  0
SPLINE
  5
12a
100
AcDbEntity
  8
0
 62
7
100
AcDbSpline
 70
8
 71
3
 72
8
 73
4
 74
0
 40
0
 40
0
 40
0
 40
0
 40
1
 40
1
 40
1
 40
1
 10
139.770088
 20
154.129700
 30
0.0
 10
138.326376
 20
154.129700
 30
0.0
 10
136.882661
 20
154.129700
 30
0.0
 10
135.438949
 20
154.129700
 30
0.0
  0
SPLINE
  5
12b
100
AcDbEntity
  8
0
 62
7
100
AcDbSpline
 70
8
 71
3
 72
8
 73
4
 74
0
 40
0
 40
0
 40
0
 40
0
 40
1
 40
1
 40
1
 40
1
 10
142.407516
 20
322.463038
 30
0.0
 10
142.344389
 20
318.820633
 30
0.0
 10
142.281259
 20
315.178228
 30
0.0
 10
142.218132
 20
311.535823
 30
0.0
  0
SPLINE
  5
12c
100
AcDbEntity
  8
0
 62
7
100
AcDbSpline
 70
8
 71
3
 72
8
 73
4
 74
0
 40
0
 40
0
 40
0
 40
0
 40
1
 40
1
 40
1
 40
1
 10
138.060454
 20
322.463038
 30
0.0
 10
139.509474
 20
322.463038
 30
0.0
 10
140.958496
 20
322.463038
 30
0.0
 10
142.407516
 20
322.463038
 30
0.0
  0
SPLINE
  5
12d
100
AcDbEntity
  8
0
 62
7
100
AcDbSpline
 70
8
 71
3
 72
8
 73
4
 74
0
 40
0
 40
0
 40
0
 40
0
 40
1
 40
1
 40
1
 40
1
 10
133.713398
 20
322.463038
 30
0.0
 10
135.162417
 20
322.463038
 30
0.0
 10
136.611434
 20
322.463038
 30
0.0
 10
138.060454
 20
322.463038
 30
0.0
  0
SPLINE
  5
12e
100
AcDbEntity
  8
0
 62
7
100
AcDbSpline
 70
8
 71
3
 72
8
 73
4
 74
0
 40
0
 40
0
 40
0
 40
0
 40
1
 40
1
 40
1
 40
1
 10
139.883809
 20
75.611665
 30
0.0
 10
139.489617
 20
76.471055
 30
0.0
 10
139.095422
 20
77.330448
 30
0.0
 10
138.701230
 20
78.189839
 30
0.0
  0
SPLINE
  5
12f
100
AcDbEntity
  8
0
 62
7
100
AcDbSpline
 70
8
 71
3
 72
8
 73
4
 74
0
 40
0
 40
0
 40
0
 40
0
 40
1
 40
1
 40
1
 40
1
 10
127.669949
 20
326.583527
 30
0.0
 10
127.592942
 20
324.180936
 30
0.0
 10
127.515935
 20
321.778342
 30
0.0
 10
127.438928
 20
319.375751
 30
0.0
  0
SPLINE
  5
130
100
AcDbEntity
  8
0
 62
7
100
AcDbSpline
 70
8
 71
3
 72
8
 73
4
 74
0
 40
0
 40
0
 40
0
 40
0
 40
1
 40
1
 40
1
 40
1
 10
174.488388
 20
1.872303
 30
0.0
 10
174.150081
 20
2.594774
 30
0.0
 10
173.811774
 20
3.317219
 30
0.0
 10
173.473467
 20
4.039690
 30
0.0
  0
SPLINE
  5
131
100
AcDbEntity
  8
0
 62
7
100
AcDbSpline
 70
8
 71
3
 72
8
 73
4
 74
0
 40
0
 40
0
 40
0
 40
0
 40
1
 40
1
 40
1
 40
1
 10
120.417659
 20
55.654893
 30
0.0
 10
120.358392
 20
54.669129
 30
0.0
 10
120.299126
 20
53.683368
 30
0.0
 10
120.239859
 20
52.697605
 30
0.0
  0
SPLINE
  5
132
100
AcDbEntity
  8
0
 62
7
100
AcDbSpline
 70
8
 71
3
 72
8
 73
4
 74
0
 40
0
 40
0
 40
0
 40
0
 40
1
 40
1
 40
1
 40
1
 10
127.669949
 20
326.583527
 30
0.0
 10
117.283582
 20
318.596623
 30
0.0
 10
106.897215
 20
310.609718
 30
0.0
 10
96.510848
 20
302.622814
 30
0.0
  0
SPLINE
  5
133
100
AcDbEntity
  8
0
 62
7
100
AcDbSpline
 70
8
 71
3
 72
8
 73
4
 74
0
 40
0
 40
0
 40
0
 40
0
 40
1
 40
1
 40
1
 40
1
 10
120.239859
 20
52.697605
 30
0.0
 10
113.373263
 20
47.205821
 30
0.0
 10
106.506666
 20
41.714036
 30
0.0
 10
99.640070
 20
36.222252
 30
0.0
  0
SPLINE
  5
134
100
AcDbEntity
  8
0
 62
7
100
AcDbSpline
 70
8
 71
3
 72
8
 73
4
 74
0
 40
0
 40
0
 40
0
 40
0
 40
1
 40
1
 40
1
 40
1
 10
141.059956
 20
226.735748
 30
0.0
 10
140.859550
 20
212.499498
 30
0.0
 10
140.659147
 20
198.263248
 30
0.0
 10
140.458741
 20
184.026998
 30
0.0
  0
SPLINE
  5
135
100
AcDbEntity
  8
0
 62
7
100
AcDbSpline
 70
8
 71
3
 72
8
 73
4
 74
0
 40
0
 40
0
 40
0
 40
0
 40
1
 40
1
 40
1
 40
1
 10
140.184365
 20
164.536014
 30
0.0
 10
140.135536
 20
161.067242
 30
0.0
 10
140.086705
 20
157.598472
 30
0.0
 10
140.037876
 20
154.129700
 30
0.0
  0
SPLINE
  5
136
100
AcDbEntity
  8
0
 62
7
100
AcDbSpline
 70
8
 71
3
 72
8
 73
4
 74
0
 40
0
 40
0
 40
0
 40
0
 40
1
 40
1
 40
1
 40
1
 10
131.107813
 20
154.129700
 30
0.0
 10
131.976342
 20
210.240814
 30
0.0
 10
132.844868
 20
266.351925
 30
0.0
 10
133.713398
 20
322.463038
 30
0.0
  0
SPLINE
  5
137
100
AcDbEntity
  8
0
 62
7
100
AcDbSpline
 70
8
 71
3
 72
8
 73
4
 74
0
 40
0
 40
0
 40
0
 40
0
 40
1
 40
1
 40
1
 40
1
 10
174.869507
 20
168.299220
 30
0.0
 10
173.831658
 20
221.493310
 30
0.0
 10
172.793808
 20
274.687402
 30
0.0
 10
171.755959
 20
327.881493
 30
0.0
  0
SPLINE
  5
138
100
AcDbEntity
  8
0
 62
7
100
AcDbSpline
 70
8
 71
3
 72
8
 73
4
 74
0
 40
0
 40
0
 40
0
 40
0
 40
1
 40
1
 40
1
 40
1
 10
171.755959
 20
327.881493
 30
0.0
 10
166.703563
 20
323.688631
 30
0.0
 10
161.651170
 20
319.495769
 30
0.0
 10
156.598774
 20
315.302907
 30
0.0
  0
SPLINE
  5
139
100
AcDbEntity
  8
0
 62
7
100
AcDbSpline
 70
8
 71
3
 72
8
 73
4
 74
0
 40
0
 40
0
 40
0
 40
0
 40
1
 40
1
 40
1
 40
1
 10
174.488388
 20
59.306740
 30
0.0
 10
174.488388
 20
85.543914
 30
0.0
 10
174.488388
 20
111.781090
 30
0.0
 10
174.488388
 20
138.018263
 30
0.0
  0
SPLINE
  5
13a
100
AcDbEntity
  8
0
 62
7
100
AcDbSpline
 70
8
 71
3
 72
8
 73
4
 74
0
 40
0
 40
0
 40
0
 40
0
 40
1
 40
1
 40
1
 40
1
 10
157.153528
 20
38.839585
 30
0.0
 10
162.931814
 20
26.517156
 30
0.0
 10
168.710102
 20
14.194742
 30
0.0
 10
174.488388
 20
1.872303
 30
0.0
  0
SPLINE
  5
13b
100
AcDbEntity
  8
0
 62
7
100
AcDbSpline
 70
8
 71
3
 72
8
 73
4
 74
0
 40
0
 40
0
 40
0
 40
0
 40
1
 40
1
 40
1
 40
1
 10
162.795718
 20
73.214103
 30
0.0
 10
160.914988
 20
61.755930
 30
0.0
 10
159.034258
 20
50.297757
 30
0.0
 10
157.153528
 20
38.839585
 30
0.0
  0
SPLINE
  5
13c
100
AcDbEntity
  8
0
 62
7
100
AcDbSpline
 70
8
 71
3
 72
8
 73
4
 74
0
 40
0
 40
0
 40
0
 40
0
 40
1
 40
1
 40
1
 40
1
 10
174.488388
 20
44.975658
 30
0.0
 10
170.590832
 20
54.388472
 30
0.0
 10
166.693273
 20
63.801289
 30
0.0
 10
162.795718
 20
73.214103
 30
0.0
  0
SPLINE
  5
13d
100
AcDbEntity
  8
0
 62
7
100
AcDbSpline
 70
8
 71
3
 72
8
 73
4
 74
0
 40
0
 40
0
 40
0
 40
0
 40
1
 40
1
 40
1
 40
1
 10
163.112874
 20
88.091719
 30
0.0
 10
160.350700
 20
73.328604
 30
0.0
 10
157.588530
 20
58.565486
 30
0.0
 10
154.826356
 20
43.802371
 30
0.0
  0
SPLINE
  5
13e
100
AcDbEntity
  8
0
 62
7
100
AcDbSpline
 70
8
 71
3
 72
8
 73
4
 74
0
 40
0
 40
0
 40
0
 40
0
 40
1
 40
1
 40
1
 40
1
 10
174.488388
 20
59.306740
 30
0.0
 10
170.696549
 20
68.901733
 30
0.0
 10
166.904713
 20
78.496726
 30
0.0
 10
163.112874
 20
88.091719
 30
0.0
  0
SPLINE
  5
13f
100
AcDbEntity
  8
0
 62
7
100
AcDbSpline
 70
8
 71
3
 72
8
 73
4
 74
0
 40
0
 40
0
 40
0
 40
0
 40
1
 40
1
 40
1
 40
1
 10
158.094805
 20
116.432142
 30
0.0
 10
151.630280
 20
103.684708
 30
0.0
 10
145.165755
 20
90.937273
 30
0.0
 10
138.701230
 20
78.189839
 30
0.0
  0
SPLINE
  5
140
100
AcDbEntity
  8
0
 62
7
100
AcDbSpline
 70
8
 71
3
 72
8
 73
4
 74
0
 40
0
 40
0
 40
0
 40
0
 40
1
 40
1
 40
1
 40
1
 10
166.280492
 20
108.975906
 30
0.0
 10
164.428030
 20
113.188906
 30
0.0
 10
162.575568
 20
117.401906
 30
0.0
 10
160.723107
 20
121.614906
 30
0.0
  0
SPLINE
  5
141
100
AcDbEntity
  8
0
 62
7
100
AcDbSpline
 70
8
 71
3
 72
8
 73
4
 74
0
 40
0
 40
0
 40
0
 40
0
 40
1
 40
1
 40
1
 40
1
 10
173.624730
 20
147.055692
 30
0.0
 10
171.176651
 20
134.362431
 30
0.0
 10
168.728570
 20
121.669167
 30
0.0
 10
166.280492
 20
108.975906
 30
0.0
  0
SPLINE
  5
142
100
AcDbEntity
  8
0
 62
7
100
AcDbSpline
 70
8
 71
3
 72
8
 73
4
 74
0
 40
0
 40
0
 40
0
 40
0
 40
1
 40
1
 40
1
 40
1
 10
166.634644
 20
95.886849
 30
0.0
 10
163.788032
 20
102.735279
 30
0.0
 10
160.941417
 20
109.583712
 30
0.0
 10
158.094805
 20
116.432142
 30
0.0
  0
SPLINE
  5
143
100
AcDbEntity
  8
0
 62
7
100
AcDbSpline
 70
8
 71
3
 72
8
 73
4
 74
0
 40
0
 40
0
 40
0
 40
0
 40
1
 40
1
 40
1
 40
1
 10
174.488388
 20
138.018263
 30
0.0
 10
171.870473
 20
123.974458
 30
0.0
 10
169.252559
 20
109.930655
 30
0.0
 10
166.634644
 20
95.886849
 30
0.0
  0
SPLINE
  5
144
100
AcDbEntity
  8
0
 62
7
100
AcDbSpline
 70
8
 71
3
 72
8
 73
4
 74
0
 40
0
 40
0
 40
0
 40
0
 40
1
 40
1
 40
1
 40
1
 10
174.488388
 20
1.872303
 30
0.0
 10
174.488388
 20
16.240077
 30
0.0
 10
174.488388
 20
30.607873
 30
0.0
 10
174.488388
 20
44.975658
 30
0.0
  0
SPLINE
  5
145
100
AcDbEntity
  8
0
 62
7
100
AcDbSpline
 70
8
 71
3
 72
8
 73
4
 74
0
 40
0
 40
0
 40
0
 40
0
 40
1
 40
1
 40
1
 40
1
 10
143.377947
 20
68.216555
 30
0.0
 10
147.194082
 20
60.078493
 30
0.0
 10
151.010221
 20
51.940434
 30
0.0
 10
154.826356
 20
43.802371
 30
0.0
  0
SPLINE
  5
146
100
AcDbEntity
  8
0
 62
7
100
AcDbSpline
 70
8
 71
3
 72
8
 73
4
 74
0
 40
0
 40
0
 40
0
 40
0
 40
1
 40
1
 40
1
 40
1
 10
173.624730
 20
147.055692
 30
0.0
 10
169.324190
 20
138.575431
 30
0.0
 10
165.023647
 20
130.095167
 30
0.0
 10
160.723107
 20
121.614906
 30
0.0
  0
SPLINE
  5
147
100
AcDbEntity
  8
0
 62
7
100
AcDbSpline
 70
8
 71
3
 72
8
 73
4
 74
0
 40
0
 40
0
 40
0
 40
0
 40
1
 40
1
 40
1
 40
1
 10
146.122935
 20
162.991112
 30
0.0
 10
142.419732
 20
145.798813
 30
0.0
 10
138.716525
 20
128.606510
 30
0.0
 10
135.013322
 20
111.414211
 30
0.0
  0
SPLINE
  5
148
100
AcDbEntity
  8
0
 62
7
100
AcDbSpline
 70
8
 71
3
 72
8
 73
4
 74
0
 40
0
 40
0
 40
0
 40
0
 40
1
 40
1
 40
1
 40
1
 10
164.179703
 20
181.233932
 30
0.0
 10
161.746089
 20
191.797953
 30
0.0
 10
159.312473
 20
202.361975
 30
0.0
 10
156.878859
 20
212.925996
 30
0.0
  0
SPLINE
  5
149
100
AcDbEntity
  8
0
 62
7
100
AcDbSpline
 70
8
 71
3
 72
8
 73
4
 74
0
 40
0
 40
0
 40
0
 40
0
 40
1
 40
1
 40
1
 40
1
 10
149.353789
 20
120.151768
 30
0.0
 10
156.546246
 20
130.743399
 30
0.0
 10
163.738706
 20
141.335032
 30
0.0
 10
170.931163
 20
151.926663
 30
0.0
  0
SPLINE
  5
14a
100
AcDbEntity
  8
0
 62
7
100
AcDbSpline
 70
8
 71
3
 72
8
 73
4
 74
0
 40
0
 40
0
 40
0
 40
0
 40
1
 40
1
 40
1
 40
1
 10
134.011078
 20
106.761232
 30
0.0
 10
133.043322
 20
102.268388
 30
0.0
 10
132.075568
 20
97.775541
 30
0.0
 10
131.107813
 20
93.282696
 30
0.0
  0
SPLINE
  5
14b
100
AcDbEntity
  8
0
 62
7
100
AcDbSpline
 70
8
 71
3
 72
8
 73
4
 74
0
 40
0
 40
0
 40
0
 40
0
 40
1
 40
1
 40
1
 40
1
 10
144.191353
 20
123.966967
 30
0.0
 10
140.797928
 20
118.231722
 30
0.0
 10
137.404502
 20
112.496478
 30
0.0
 10
134.011078
 20
106.761232
 30
0.0
  0
SPLINE
  5
14c
100
AcDbEntity
  8
0
 62
7
100
AcDbSpline
 70
8
 71
3
 72
8
 73
4
 74
0
 40
0
 40
0
 40
0
 40
0
 40
1
 40
1
 40
1
 40
1
 10
145.628082
 20
114.665284
 30
0.0
 10
145.149173
 20
117.765846
 30
0.0
 10
144.670262
 20
120.866405
 30
0.0
 10
144.191353
 20
123.966967
 30
0.0
  0
SPLINE
  5
14d
100
AcDbEntity
  8
0
 62
7
100
AcDbSpline
 70
8
 71
3
 72
8
 73
4
 74
0
 40
0
 40
0
 40
0
 40
0
 40
1
 40
1
 40
1
 40
1
 10
146.169412
 20
135.496303
 30
0.0
 10
142.450714
 20
127.468940
 30
0.0
 10
138.732019
 20
119.441574
 30
0.0
 10
135.013322
 20
111.414211
 30
0.0
  0
SPLINE
  5
14e
100
AcDbEntity
  8
0
 62
7
100
AcDbSpline
 70
8
 71
3
 72
8
 73
4
 74
0
 40
0
 40
0
 40
0
 40
0
 40
1
 40
1
 40
1
 40
1
 10
149.865684
 20
136.971259
 30
0.0
 10
155.133826
 20
149.568924
 30
0.0
 10
160.401966
 20
162.166591
 30
0.0
 10
165.670109
 20
174.764255
 30
0.0
  0
SPLINE
  5
14f
100
AcDbEntity
  8
0
 62
7
100
AcDbSpline
 70
8
 71
3
 72
8
 73
4
 74
0
 40
0
 40
0
 40
0
 40
0
 40
1
 40
1
 40
1
 40
1
 10
146.122935
 20
162.991112
 30
0.0
 10
147.370517
 20
154.317827
 30
0.0
 10
148.618102
 20
145.644545
 30
0.0
 10
149.865684
 20
136.971259
 30
0.0
  0
SPLINE
  5
150
100
AcDbEntity
  8
0
 62
7
100
AcDbSpline
 70
8
 71
3
 72
8
 73
4
 74
0
 40
0
 40
0
 40
0
 40
0
 40
1
 40
1
 40
1
 40
1
 10
153.372212
 20
153.781540
 30
0.0
 10
152.066575
 20
162.008288
 30
0.0
 10
150.760938
 20
170.235033
 30
0.0
 10
149.455302
 20
178.461781
 30
0.0
  0
SPLINE
  5
151
100
AcDbEntity
  8
0
 62
7
100
AcDbSpline
 70
8
 71
3
 72
8
 73
4
 74
0
 40
0
 40
0
 40
0
 40
0
 40
1
 40
1
 40
1
 40
1
 10
164.179703
 20
181.233932
 30
0.0
 10
160.577205
 20
172.083135
 30
0.0
 10
156.974710
 20
162.932338
 30
0.0
 10
153.372212
 20
153.781540
 30
0.0
  0
SPLINE
  5
152
100
AcDbEntity
  8
0
 62
7
100
AcDbSpline
 70
8
 71
3
 72
8
 73
4
 74
0
 40
0
 40
0
 40
0
 40
0
 40
1
 40
1
 40
1
 40
1
 10
170.931163
 20
151.926663
 30
0.0
 10
169.177478
 20
159.539194
 30
0.0
 10
167.423793
 20
167.151725
 30
0.0
 10
165.670109
 20
174.764255
 30
0.0
  0
SPLINE
  5
153
100
AcDbEntity
  8
0
 62
7
100
AcDbSpline
 70
8
 71
3
 72
8
 73
4
 74
0
 40
0
 40
0
 40
0
 40
0
 40
1
 40
1
 40
1
 40
1
 10
131.107813
 20
93.282696
 30
0.0
 10
135.947902
 20
100.410224
 30
0.0
 10
140.787993
 20
107.537755
 30
0.0
 10
145.628082
 20
114.665284
 30
0.0
  0
SPLINE
  5
154
100
AcDbEntity
  8
0
 62
7
100
AcDbSpline
 70
8
 71
3
 72
8
 73
4
 74
0
 40
0
 40
0
 40
0
 40
0
 40
1
 40
1
 40
1
 40
1
 10
156.878859
 20
212.925996
 30
0.0
 10
154.404341
 20
201.437925
 30
0.0
 10
151.929820
 20
189.949852
 30
0.0
 10
149.455302
 20
178.461781
 30
0.0
  0
SPLINE
  5
155
100
AcDbEntity
  8
0
 62
7
100
AcDbSpline
 70
8
 71
3
 72
8
 73
4
 74
0
 40
0
 40
0
 40
0
 40
0
 40
1
 40
1
 40
1
 40
1
 10
149.353789
 20
120.151768
 30
0.0
 10
148.292331
 20
125.266614
 30
0.0
 10
147.230870
 20
130.381457
 30
0.0
 10
146.169412
 20
135.496303
 30
0.0
  0
SPLINE
  5
156
100
AcDbEntity
  8
0
 62
7
100
AcDbSpline
 70
8
 71
3
 72
8
 73
4
 74
0
 40
0
 40
0
 40
0
 40
0
 40
1
 40
1
 40
1
 40
1
 10
140.037876
 20
154.129700
 30
0.0
 10
137.061189
 20
154.129700
 30
0.0
 10
134.084499
 20
154.129700
 30
0.0
 10
131.107813
 20
154.129700
 30
0.0
  0
SPLINE
  5
157
100
AcDbEntity
  8
0
 62
7
100
AcDbSpline
 70
8
 71
3
 72
8
 73
4
 74
0
 40
0
 40
0
 40
0
 40
0
 40
1
 40
1
 40
1
 40
1
 10
141.920267
 20
287.850137
 30
0.0
 10
141.755326
 20
276.133040
 30
0.0
 10
141.590382
 20
264.415945
 30
0.0
 10
141.425441
 20
252.698848
 30
0.0
  0
SPLINE
  5
158
100
AcDbEntity
  8
0
 62
7
100
AcDbSpline
 70
8
 71
3
 72
8
 73
4
 74
0
 40
0
 40
0
 40
0
 40
0
 40
1
 40
1
 40
1
 40
1
 10
171.755959
 20
327.881493
 30
0.0
 10
166.703563
 20
323.688631
 30
0.0
 10
161.651170
 20
319.495769
 30
0.0
 10
156.598774
 20
315.302907
 30
0.0
  0
SPLINE
  5
159
100
AcDbEntity
  8
0
 62
7
100
AcDbSpline
 70
8
 71
3
 72
8
 73
4
 74
0
 40
0
 40
0
 40
0
 40
0
 40
1
 40
1
 40
1
 40
1
 10
156.598774
 20
315.302907
 30
0.0
 10
162.689019
 20
266.301678
 30
0.0
 10
168.779262
 20
217.300450
 30
0.0
 10
174.869507
 20
168.299220
 30
0.0
  0
LWPOLYLINE
  5
15a
100
AcDbEntity
  8
0
 62
7
100
AcDbPolyline
 90
2
 70
1
 10
175.382439
 20
0.132297
 30
0.0
 10
175.382436
 20
0.132297
 30
0.0
  0
SPLINE
  5
15b
100
AcDbEntity
  8
0
 62
7
100
AcDbSpline
 70
8
 71
3
 72
8
 73
4
 74
0
 40
0
 40
0
 40
0
 40
0
 40
1
 40
1
 40
1
 40
1
 10
1.028226
 20
1.872303
 30
0.0
 10
1.366533
 20
2.594774
 30
0.0
 10
1.704841
 20
3.317219
 30
0.0
 10
2.043148
 20
4.039690
 30
0.0
  0
SPLINE
  5
15c
100
AcDbEntity
  8
0
 62
7
100
AcDbSpline
 70
8
 71
3
 72
8
 73
4
 74
0
 40
0
 40
0
 40
0
 40
0
 40
1
 40
1
 40
1
 40
1
 10
47.846666
 20
326.583527
 30
0.0
 10
47.923673
 20
324.180936
 30
0.0
 10
48.000679
 20
321.778342
 30
0.0
 10
48.077686
 20
319.375751
 30
0.0
  0
SPLINE
  5
15d
100
AcDbEntity
  8
0
 62
7
100
AcDbSpline
 70
8
 71
3
 72
8
 73
4
 74
0
 40
0
 40
0
 40
0
 40
0
 40
1
 40
1
 40
1
 40
1
 10
35.632806
 20
75.611665
 30
0.0
 10
36.026998
 20
76.471055
 30
0.0
 10
36.421193
 20
77.330448
 30
0.0
 10
36.815385
 20
78.189839
 30
0.0
  0
SPLINE
  5
15e
100
AcDbEntity
  8
0
 62
7
100
AcDbSpline
 70
8
 71
3
 72
8
 73
4
 74
0
 40
0
 40
0
 40
0
 40
0
 40
1
 40
1
 40
1
 40
1
 10
41.803217
 20
322.463038
 30
0.0
 10
40.354197
 20
322.463038
 30
0.0
 10
38.905180
 20
322.463038
 30
0.0
 10
37.456161
 20
322.463038
 30
0.0
  0
SPLINE
  5
15f
100
AcDbEntity
  8
0
 62
7
100
AcDbSpline
 70
8
 71
3
 72
8
 73
4
 74
0
 40
0
 40
0
 40
0
 40
0
 40
1
 40
1
 40
1
 40
1
 10
37.456161
 20
322.463038
 30
0.0
 10
36.007141
 20
322.463038
 30
0.0
 10
34.558118
 20
322.463038
 30
0.0
 10
33.109099
 20
322.463038
 30
0.0
  0
SPLINE
  5
160
100
AcDbEntity
  8
0
 62
7
100
AcDbSpline
 70
8
 71
3
 72
8
 73
4
 74
0
 40
0
 40
0
 40
0
 40
0
 40
1
 40
1
 40
1
 40
1
 10
33.109099
 20
322.463038
 30
0.0
 10
33.172226
 20
318.820633
 30
0.0
 10
33.235355
 20
315.178228
 30
0.0
 10
33.298482
 20
311.535823
 30
0.0
  0
SPLINE
  5
161
100
AcDbEntity
  8
0
 62
7
100
AcDbSpline
 70
8
 71
3
 72
8
 73
4
 74
0
 40
0
 40
0
 40
0
 40
0
 40
1
 40
1
 40
1
 40
1
 10
35.746526
 20
154.129700
 30
0.0
 10
37.190238
 20
154.129700
 30
0.0
 10
38.633953
 20
154.129700
 30
0.0
 10
40.077665
 20
154.129700
 30
0.0
  0
SPLINE
  5
162
100
AcDbEntity
  8
0
 62
7
100
AcDbSpline
 70
8
 71
3
 72
8
 73
4
 74
0
 40
0
 40
0
 40
0
 40
0
 40
1
 40
1
 40
1
 40
1
 10
40.077665
 20
154.129700
 30
0.0
 10
41.521378
 20
154.129700
 30
0.0
 10
42.965090
 20
154.129700
 30
0.0
 10
44.408802
 20
154.129700
 30
0.0
  0
LWPOLYLINE
  5
163
100
AcDbEntity
  8
0
 62
7
100
AcDbPolyline
 90
1
 70
1
 10
0.134176
 20
0.132297
 30
0.0
  0
LWPOLYLINE
  5
164
100
AcDbEntity
  8
0
 62
7
100
AcDbPolyline
 90
2
 70
0
 10
35.057874
 20
184.026998
 30
0.0
 10
35.122366
 20
181.944436
 30
0.0
  0
SPLINE
  5
165
100
AcDbEntity
  8
0
 62
7
100
AcDbSpline
 70
8
 71
3
 72
8
 73
4
 74
0
 40
0
 40
0
 40
0
 40
0
 40
1
 40
1
 40
1
 40
1
 10
140.394248
 20
181.944436
 30
0.0
 10
140.246844
 20
176.948949
 30
0.0
 10
140.222793
 20
171.950660
 30
0.0
 10
140.196692
 20
166.953377
 30
0.0
  0
SPLINE
  5
166
100
AcDbEntity
  8
0
 62
7
100
AcDbSpline
 70
8
 71
3
 72
8
 73
4
 74
0
 40
0
 40
0
 40
0
 40
0
 40
1
 40
1
 40
1
 40
1
 10
141.127255
 20
233.058528
 30
0.0
 10
141.105216
 20
230.950931
 30
0.0
 10
141.082789
 20
228.843337
 30
0.0
 10
141.059956
 20
226.735748
 30
0.0
  0
SPLINE
  5
167
100
AcDbEntity
  8
0
 62
7
100
AcDbSpline
 70
8
 71
3
 72
8
 73
4
 74
0
 40
0
 40
0
 40
0
 40
0
 40
1
 40
1
 40
1
 40
1
 10
49.959533
 20
229.844661
 30
0.0
 10
50.371846
 20
203.581508
 30
0.0
 10
50.758212
 20
177.317522
 30
0.0
 10
51.376064
 20
151.058184
 30
0.0
  0
SPLINE
  5
168
100
AcDbEntity
  8
0
 62
7
100
AcDbSpline
 70
8
 71
3
 72
8
 73
4
 74
0
 40
0
 40
0
 40
0
 40
0
 40
1
 40
1
 40
1
 40
1
 10
141.425441
 20
252.698848
 30
0.0
 10
141.273845
 20
246.153030
 30
0.0
 10
141.200847
 20
239.605606
 30
0.0
 10
141.127255
 20
233.058528
 30
0.0
  0
LWPOLYLINE
  5
169
100
AcDbEntity
  8
0
 62
7
100
AcDbPolyline
 90
2
 70
0
 10
140.196692
 20
166.953377
 30
0.0
 10
140.184362
 20
164.536014
 30
0.0
  0
SPLINE
  5
16a
100
AcDbEntity
  8
0
 62
7
100
AcDbSpline
 70
8
 71
3
 72
8
 73
4
 74
0
 40
0
 40
0
 40
0
 40
0
 40
1
 40
1
 40
1
 40
1
 10
75.876547
 20
36.222252
 30
0.0
 10
84.010712
 20
124.689751
 30
0.0
 10
85.187706
 20
213.992389
 30
0.0
 10
79.005766
 20
302.622814
 30
0.0
  0
LWPOLYLINE
  5
16b
100
AcDbEntity
  8
0
 62
7
100
AcDbPolyline
 90
2
 70
0
 10
79.005507
 20
77.545060
 30
0.0
 10
79.005766
 20
77.548870
 30
0.0
  0
SPLINE
  5
16c
100
AcDbEntity
  8
0
 62
7
100
AcDbSpline
 70
8
 71
3
 72
8
 73
4
 74
0
 40
0
 40
0
 40
0
 40
0
 40
1
 40
1
 40
1
 40
1
 10
142.218132
 20
311.535823
 30
0.0
 10
142.090958
 20
303.640979
 30
0.0
 10
142.005466
 20
295.745523
 30
0.0
 10
141.920267
 20
287.850137
 30
0.0
  0
LWPOLYLINE
  5
16d
100
AcDbEntity
  8
0
 62
7
100
AcDbPolyline
 90
2
 70
0
 10
79.005507
 20
77.545060
 30
0.0
 10
79.005512
 20
77.545176
 30
0.0
  0
LWPOLYLINE
  5
16e
100
AcDbEntity
  8
0
 62
7
100
AcDbPolyline
 90
2
 70
0
 10
174.450852
 20
137.816894
 30
0.0
 10
174.488388
 20
138.018263
 30
0.0
  0
SPLINE
  5
16f
100
AcDbEntity
  8
0
 62
7
100
AcDbSpline
 70
8
 71
3
 72
8
 73
4
 74
0
 40
0
 40
0
 40
0
 40
0
 40
1
 40
1
 40
1
 40
1
 10
143.377947
 20
68.216555
 30
0.0
 10
142.205390
 20
70.677850
 30
0.0
 10
141.029322
 20
73.137617
 30
0.0
 10
139.883809
 20
75.611665
 30
0.0
  0
SPLINE
  5
170
100
AcDbEntity
  8
0
 62
7
100
AcDbSpline
 70
8
 71
3
 72
8
 73
4
 74
0
 40
0
 40
0
 40
0
 40
0
 40
1
 40
1
 40
1
 40
1
 10
120.683158
 20
60.390434
 30
0.0
 10
120.637255
 20
59.480461
 30
0.0
 10
120.460257
 20
56.323431
 30
0.0
 10
120.417659
 20
55.654893
 30
0.0
  0
SPLINE
  5
171
100
AcDbEntity
  8
0
 62
7
100
AcDbSpline
 70
8
 71
3
 72
8
 73
4
 74
0
 40
0
 40
0
 40
0
 40
0
 40
1
 40
1
 40
1
 40
1
 10
121.263222
 20
71.769182
 30
0.0
 10
121.083017
 20
67.975612
 30
0.0
 10
120.885217
 20
64.182895
 30
0.0
 10
120.683158
 20
60.390434
 30
0.0
  0
SPLINE
  5
172
100
AcDbEntity
  8
0
 62
7
100
AcDbSpline
 70
8
 71
3
 72
8
 73
4
 74
0
 40
0
 40
0
 40
0
 40
0
 40
1
 40
1
 40
1
 40
1
 10
121.609835
 20
79.174403
 30
0.0
 10
121.492920
 20
76.706061
 30
0.0
 10
121.377636
 20
74.237641
 30
0.0
 10
121.263222
 20
71.769182
 30
0.0
  0
SPLINE
  5
173
100
AcDbEntity
  8
0
 62
7
100
AcDbSpline
 70
8
 71
3
 72
8
 73
4
 74
0
 40
0
 40
0
 40
0
 40
0
 40
1
 40
1
 40
1
 40
1
 10
121.966678
 20
87.663316
 30
0.0
 10
121.855707
 20
84.833357
 30
0.0
 10
121.740689
 20
82.003524
 30
0.0
 10
121.609835
 20
79.174404
 30
0.0
  0
SPLINE
  5
174
100
AcDbEntity
  8
0
 62
7
100
AcDbSpline
 70
8
 71
3
 72
8
 73
4
 74
0
 40
0
 40
0
 40
0
 40
0
 40
1
 40
1
 40
1
 40
1
 10
122.705778
 20
103.738069
 30
0.0
 10
122.369160
 20
98.384466
 30
0.0
 10
122.183435
 20
93.022703
 30
0.0
 10
121.966678
 20
87.663316
 30
0.0
  0
SPLINE
  5
175
100
AcDbEntity
  8
0
 62
7
100
AcDbSpline
 70
8
 71
3
 72
8
 73
4
 74
0
 40
0
 40
0
 40
0
 40
0
 40
1
 40
1
 40
1
 40
1
 10
123.234598
 20
120.174049
 30
0.0
 10
123.080841
 20
114.694862
 30
0.0
 10
122.960839
 20
109.213758
 30
0.0
 10
122.705778
 20
103.738069
 30
0.0
  0
SPLINE
  5
176
100
AcDbEntity
  8
0
 62
7
100
AcDbSpline
 70
8
 71
3
 72
8
 73
4
 74
0
 40
0
 40
0
 40
0
 40
0
 40
1
 40
1
 40
1
 40
1
 10
123.769724
 20
138.596796
 30
0.0
 10
123.553535
 20
132.457060
 30
0.0
 10
123.396698
 20
126.315393
 30
0.0
 10
123.234598
 20
120.174049
 30
0.0
  0
SPLINE
  5
177
100
AcDbEntity
  8
0
 62
7
100
AcDbSpline
 70
8
 71
3
 72
8
 73
4
 74
0
 40
0
 40
0
 40
0
 40
0
 40
1
 40
1
 40
1
 40
1
 10
124.140574
 20
151.059242
 30
0.0
 10
124.037225
 20
146.904543
 30
0.0
 10
123.924042
 20
142.749955
 30
0.0
 10
123.769724
 20
138.596796
 30
0.0
  0
LWPOLYLINE
  5
178
100
AcDbEntity
  8
0
 62
7
100
AcDbPolyline
 90
2
 70
0
 10
157.609252
 20
115.478052
 30
0.0
 10
157.610839
 20
115.478036
 30
0.0
  0
LWPOLYLINE
  5
179
100
AcDbEntity
  8
0
 62
7
100
AcDbPolyline
 90
2
 70
0
 10
124.140587
 20
151.059748
 30
0.0
 10
124.140574
 20
151.059219
 30
0.0
  0
SPLINE
  5
17a
100
AcDbEntity
  8
0
 62
7
100
AcDbSpline
 70
8
 71
3
 72
8
 73
4
 74
0
 40
0
 40
0
 40
0
 40
0
 40
1
 40
1
 40
1
 40
1
 10
125.954333
 20
257.622193
 30
0.0
 10
125.774114
 20
249.314907
 30
0.0
 10
125.679674
 20
241.005947
 30
0.0
 10
125.587202
 20
232.697300
 30
0.0
  0
SPLINE
  5
17b
100
AcDbEntity
  8
0
 62
7
100
AcDbSpline
 70
8
 71
3
 72
8
 73
4
 74
0
 40
0
 40
0
 40
0
 40
0
 40
1
 40
1
 40
1
 40
1
 10
126.490058
 20
281.644010
 30
0.0
 10
126.320902
 20
273.636536
 30
0.0
 10
126.150447
 20
265.629059
 30
0.0
 10
125.954333
 20
257.622193
 30
0.0
  0
SPLINE
  5
17c
100
AcDbEntity
  8
0
 62
7
100
AcDbSpline
 70
8
 71
3
 72
8
 73
4
 74
0
 40
0
 40
0
 40
0
 40
0
 40
1
 40
1
 40
1
 40
1
 10
127.438928
 20
319.375751
 30
0.0
 10
127.026477
 20
306.801096
 30
0.0
 10
126.751739
 20
294.222541
 30
0.0
 10
126.490058
 20
281.644010
 30
0.0
  0
LWPOLYLINE
  5
17d
100
AcDbEntity
  8
0
 62
7
100
AcDbPolyline
 90
2
 70
0
 10
125.587202
 20
232.697300
 30
0.0
 10
125.557082
 20
229.844558
 30
0.0
  0
SPLINE
  5
17e
100
AcDbEntity
  8
0
 62
7
100
AcDbSpline
 70
8
 71
3
 72
8
 73
4
 74
0
 40
0
 40
0
 40
0
 40
0
 40
1
 40
1
 40
1
 40
1
 10
99.640070
 20
36.222252
 30
0.0
 10
91.505903
 20
124.689751
 30
0.0
 10
90.328909
 20
213.992389
 30
0.0
 10
96.510848
 20
302.622814
 30
0.0
  0
LWPOLYLINE
  5
17f
100
AcDbEntity
  8
0
 62
7
100
AcDbPolyline
 90
2
 70
0
 10
96.511110
 20
77.545060
 30
0.0
 10
96.511102
 20
77.545176
 30
0.0
  0
SPLINE
  5
180
100
AcDbEntity
  8
0
 62
7
100
AcDbSpline
 70
8
 71
3
 72
8
 73
4
 74
0
 40
0
 40
0
 40
0
 40
0
 40
1
 40
1
 40
1
 40
1
 10
125.557082
 20
229.844661
 30
0.0
 10
125.144771
 20
203.581508
 30
0.0
 10
124.758403
 20
177.317522
 30
0.0
 10
124.140550
 20
151.058184
 30
0.0
  0
LWPOLYLINE
  5
181
100
AcDbEntity
  8
0
 62
7
100
AcDbPolyline
 90
2
 70
0
 10
96.511110
 20
77.545060
 30
0.0
 10
96.510848
 20
77.548870
 30
0.0
  0
SPLINE
  5
182
100
AcDbEntity
  8
0
 62
7
100
AcDbSpline
 70
8
 71
3
 72
8
 73
4
 74
0
 40
0
 40
0
 40
0
 40
0
 40
1
 40
1
 40
1
 40
1
 10
48.077686
 20
319.375751
 30
0.0
 10
48.490137
 20
306.801096
 30
0.0
 10
48.764876
 20
294.222541
 30
0.0
 10
49.026556
 20
281.644010
 30
0.0
  0
SPLINE
  5
183
100
AcDbEntity
  8
0
 62
7
100
AcDbSpline
 70
8
 71
3
 72
8
 73
4
 74
0
 40
0
 40
0
 40
0
 40
0
 40
1
 40
1
 40
1
 40
1
 10
49.026556
 20
281.644010
 30
0.0
 10
49.195712
 20
273.636536
 30
0.0
 10
49.366168
 20
265.629059
 30
0.0
 10
49.562282
 20
257.622193
 30
0.0
  0
SPLINE
  5
184
100
AcDbEntity
  8
0
 62
7
100
AcDbSpline
 70
8
 71
3
 72
8
 73
4
 74
0
 40
0
 40
0
 40
0
 40
0
 40
1
 40
1
 40
1
 40
1
 10
49.562282
 20
257.622193
 30
0.0
 10
49.742500
 20
249.314907
 30
0.0
 10
49.836941
 20
241.005947
 30
0.0
 10
49.929415
 20
232.697300
 30
0.0
  0
LWPOLYLINE
  5
185
100
AcDbEntity
  8
0
 62
7
100
AcDbPolyline
 90
2
 70
0
 10
140.458741
 20
184.026998
 30
0.0
 10
140.394248
 20
181.944436
 30
0.0
  0
LWPOLYLINE
  5
186
100
AcDbEntity
  8
0
 62
7
100
AcDbPolyline
 90
2
 70
0
 10
49.929415
 20
232.697300
 30
0.0
 10
49.959535
 20
229.844558
 30
0.0
  0
SPLINE
  5
187
100
AcDbEntity
  8
0
 62
7
100
AcDbSpline
 70
8
 71
3
 72
8
 73
4
 74
0
 40
0
 40
0
 40
0
 40
0
 40
1
 40
1
 40
1
 40
1
 10
51.376041
 20
151.059242
 30
0.0
 10
51.479389
 20
146.904543
 30
0.0
 10
51.592573
 20
142.749955
 30
0.0
 10
51.746891
 20
138.596796
 30
0.0
  0
SPLINE
  5
188
100
AcDbEntity
  8
0
 62
7
100
AcDbSpline
 70
8
 71
3
 72
8
 73
4
 74
0
 40
0
 40
0
 40
0
 40
0
 40
1
 40
1
 40
1
 40
1
 10
51.746891
 20
138.596796
 30
0.0
 10
51.963079
 20
132.457060
 30
0.0
 10
52.119917
 20
126.315393
 30
0.0
 10
52.282016
 20
120.174049
 30
0.0
  0
SPLINE
  5
189
100
AcDbEntity
  8
0
 62
7
100
AcDbSpline
 70
8
 71
3
 72
8
 73
4
 74
0
 40
0
 40
0
 40
0
 40
0
 40
1
 40
1
 40
1
 40
1
 10
52.282016
 20
120.174049
 30
0.0
 10
52.435773
 20
114.694862
 30
0.0
 10
52.555775
 20
109.213758
 30
0.0
 10
52.810836
 20
103.738069
 30
0.0
  0
SPLINE
  5
18a
100
AcDbEntity
  8
0
 62
7
100
AcDbSpline
 70
8
 71
3
 72
8
 73
4
 74
0
 40
0
 40
0
 40
0
 40
0
 40
1
 40
1
 40
1
 40
1
 10
52.810836
 20
103.738069
 30
0.0
 10
53.147455
 20
98.384466
 30
0.0
 10
53.333179
 20
93.022703
 30
0.0
 10
53.549937
 20
87.663316
 30
0.0
  0
SPLINE
  5
18b
100
AcDbEntity
  8
0
 62
7
100
AcDbSpline
 70
8
 71
3
 72
8
 73
4
 74
0
 40
0
 40
0
 40
0
 40
0
 40
1
 40
1
 40
1
 40
1
 10
53.549937
 20
87.663316
 30
0.0
 10
53.660905
 20
84.833357
 30
0.0
 10
53.775925
 20
82.003524
 30
0.0
 10
53.906783
 20
79.174404
 30
0.0
  0
SPLINE
  5
18c
100
AcDbEntity
  8
0
 62
7
100
AcDbSpline
 70
8
 71
3
 72
8
 73
4
 74
0
 40
0
 40
0
 40
0
 40
0
 40
1
 40
1
 40
1
 40
1
 10
53.906783
 20
79.174403
 30
0.0
 10
54.023697
 20
76.706061
 30
0.0
 10
54.138978
 20
74.237641
 30
0.0
 10
54.253392
 20
71.769182
 30
0.0
  0
SPLINE
  5
18d
100
AcDbEntity
  8
0
 62
7
100
AcDbSpline
 70
8
 71
3
 72
8
 73
4
 74
0
 40
0
 40
0
 40
0
 40
0
 40
1
 40
1
 40
1
 40
1
 10
54.253392
 20
71.769182
 30
0.0
 10
54.433600
 20
67.975612
 30
0.0
 10
54.631400
 20
64.182895
 30
0.0
 10
54.833457
 20
60.390434
 30
0.0
  0
SPLINE
  5
18e
100
AcDbEntity
  8
0
 62
7
100
AcDbSpline
 70
8
 71
3
 72
8
 73
4
 74
0
 40
0
 40
0
 40
0
 40
0
 40
1
 40
1
 40
1
 40
1
 10
54.833457
 20
60.390434
 30
0.0
 10
54.879359
 20
59.480461
 30
0.0
 10
55.056358
 20
56.323431
 30
0.0
 10
55.098956
 20
55.654893
 30
0.0
  0
SPLINE
  5
18f
100
AcDbEntity
  8
0
 62
7
100
AcDbSpline
 70
8
 71
3
 72
8
 73
4
 74
0
 40
0
 40
0
 40
0
 40
0
 40
1
 40
1
 40
1
 40
1
 10
32.138668
 20
68.216555
 30
0.0
 10
33.311224
 20
70.677850
 30
0.0
 10
34.487292
 20
73.137617
 30
0.0
 10
35.632806
 20
75.611665
 30
0.0
  0
LWPOLYLINE
  5
190
100
AcDbEntity
  8
0
 62
7
100
AcDbPolyline
 90
2
 70
0
 10
51.376030
 20
151.059748
 30
0.0
 10
51.376041
 20
151.059219
 30
0.0
  0
LWPOLYLINE
  5
191
100
AcDbEntity
  8
0
 62
7
100
AcDbPolyline
 90
2
 70
0
 10
17.907363
 20
115.478052
 30
0.0
 10
17.905775
 20
115.478036
 30
0.0
  0
SPLINE
  5
192
100
AcDbEntity
  8
0
 62
7
100
AcDbSpline
 70
8
 71
3
 72
8
 73
4
 74
0
 40
0
 40
0
 40
0
 40
0
 40
1
 40
1
 40
1
 40
1
 10
33.298482
 20
311.535823
 30
0.0
 10
33.425662
 20
303.640980
 30
0.0
 10
33.511152
 20
295.745524
 30
0.0
 10
33.596347
 20
287.850137
 30
0.0
  0
SPLINE
  5
193
100
AcDbEntity
  8
0
 62
7
100
AcDbSpline
 70
8
 71
3
 72
8
 73
4
 74
0
 40
0
 40
0
 40
0
 40
0
 40
1
 40
1
 40
1
 40
1
 10
34.091176
 20
252.698848
 30
0.0
 10
34.242769
 20
246.153030
 30
0.0
 10
34.315768
 20
239.605606
 30
0.0
 10
34.389362
 20
233.058528
 30
0.0
  0
SPLINE
  5
194
100
AcDbEntity
  8
0
 62
7
100
AcDbSpline
 70
8
 71
3
 72
8
 73
4
 74
0
 40
0
 40
0
 40
0
 40
0
 40
1
 40
1
 40
1
 40
1
 10
34.389362
 20
233.058528
 30
0.0
 10
34.411402
 20
230.950931
 30
0.0
 10
34.433825
 20
228.843337
 30
0.0
 10
34.456659
 20
226.735748
 30
0.0
  0
SPLINE
  5
195
100
AcDbEntity
  8
0
 62
7
100
AcDbSpline
 70
8
 71
3
 72
8
 73
4
 74
0
 40
0
 40
0
 40
0
 40
0
 40
1
 40
1
 40
1
 40
1
 10
35.122366
 20
181.944436
 30
0.0
 10
35.269771
 20
176.948949
 30
0.0
 10
35.293821
 20
171.950660
 30
0.0
 10
35.319923
 20
166.953377
 30
0.0
  0
LWPOLYLINE
  5
196
100
AcDbEntity
  8
0
 62
7
100
AcDbPolyline
 90
2
 70
0
 10
1.065764
 20
137.816894
 30
0.0
 10
1.028226
 20
138.018263
 30
0.0
  0
LWPOLYLINE
  5
197
100
AcDbEntity
  8
0
 62
7
100
AcDbPolyline
 90
2
 70
0
 10
35.319923
 20
166.953377
 30
0.0
 10
35.332252
 20
164.536014
 30
0.0
  0
ENDSEC
  0
SECTION
  2
OBJECTS
  0
DICTIONARY
  5
C
330
0
100
AcDbDictionary
  3
ACAD_GROUP
350
D
  3
ACAD_MLINESTYLE
350
17
  0
DICTIONARY
  5
D
330
C
100
AcDbDictionary
  0
DICTIONARY
  5
1A
330
C
100
AcDbDictionary
  0
DICTIONARY
  5
17
330
C
100
AcDbDictionary
  3
STANDARD
350
18
  0
DICTIONARY
  5
19
330
C
100
AcDbDictionary
  0
ENDSEC
  0
EOF
